Home » D » Divine Heresy »

Divine Heresy - Closure Tabs

Artists:  A B C D E F G H I J K L M N O P Q R S T U V W X Y Z # 

Closure Tabs

(ver. 3) Click to play this song!
Divine Heresy
 Rating:
4.2/5 (5 votes)
                -------------------------------------------------------------------------------
                             CLOSURE - DIVINE HERESY
-------------------------------------------------------------------------------

Tuning: (I'm play on a Six String)
I think it is Drop B, but if you listen, it's pretty easy to guess.
I'm leaving the scale at drop D, just because I'm lazy :)
And you can play in on D if you feel like it.

(verse 1) clean
e|---------------------------------------------------------------------------|
B|---------------------------------------------------------------------------|
G|---------------------------------------------------------------------------|
D|------3-2--------3-2-------3-2--------5-33---------------------------------|
A|----------5----------3---------3-------------------------------------------|
D|--(0)--------(0)-------(3)--------(5)--------------------------------------|

(chorus)
e|---------------------------------------------------------------------------|
B|---------------------------------------------------------------------------|
G|---------------------------------------------------------------------------|
D|---------------------------------------------------------------------------|
A|---(0)-0--0--0--0-0---3--3-3---5--5-5----(0)-0--0--0--0-0----3-3-3--333-33-|
D|---(0)-0--0--0--0-0---3--3-3---5--5-5----(0)-0--0--0--0-0----3-3-3--222-33-|
         pm pm                                pm pm 

(verse 2)
e|---------------------------------------------------------------------------|
B|---------------------------------------------------------------------------|
G|---------------------------------------------------------------------------|
D|--2--2222---3--2222---5--5555-5-5555------2--2222---3--2222----------------|
A|--0--0000---1--0000---3--3332-3-3332------0--0000---1--0000----5-555-5-555-|
D|---------------------------------------------------------------5-555-2-555-|
       pm...     pm...                         pm...     pm...

(Verse 3) Distorted
e|---------------------------------------------------------------------------|
B|---------------------------------------------------------------------------|
G|---------------------------------------------------------------------------|
D|-----3-2--------3-2---------3-2----------5--22-----------------------------|
A|--0-------5---0-------3---3-----3----5-------------(0)---------------------|
D|--0-----------0-----------3----------5-------------(0)---------------------|

I know this can't be the CORRECT way to play it.
But it sounded pretty accurate to me.
Dino is the man! 

If you have any questions let me know via email.
            
Submit corrections

↑ Back to top | Tablatures and chords for acoustic guitar and electric guitar, ukulele, drums are parodies/interpretations of the original songs. You may use it for private study, scholarship, research or language learning purposes only