Home » D » Divine Heresy »

Divine Heresy - Closure Tabs

Artists:  A B C D E F G H I J K L M N O P Q R S T U V W X Y Z # 

Closure Tabs

(ver. 1) Click to play this song!
Divine Heresy
 Rating:
4/5 (5 votes)
                Intro
-----------------------------------------------|
-----------------------------------------------|
-----------------------------------------------|
---5-4-2-------5-4-0---------5-4-4------7-5-5--|
-----------0-----------------------------------|
0-------------------------3----------5---------|

Verse
-----------------------------------------------|
-----------------------------------------------|
-----------------------------------------------|
---5-4-2-------5-4-0---------5-4-4------7-5-5--|
-----------------------------------------------|
0----------0--------------3----------5---------|

Chorus
-----------------------------------------|
-----------------------------------------|
-----------------------------------------|
--------------------------------7-7-7----|
2--(2)----2---------5--5-55-5/7-7-7-7----|
0---0-0---0----0-0--3--3-33-3/5-5-5-5----|
    * *        * *
---------------------------------------|
---------------------------------------|
---------------------------------------|
-----------------------------4---(4)4--|
2--(2)----2---------5-5-55-5-5--5-5-5--|
0---0-0---0--0-0-0--3-3-35-3-2--2-2-2--|
    * *      * * *

Bridge

-------------------------------------------------------------|
-------------------------------------------------------------|
-----------------------------6-------------------------------|
-----------------------7-7-7-7--7-7-7------------------------|
9--9-9-9/7-10-101010---5-7-5-4--5-4-5------------------------|
7--7-7-7/5-8--8-8-8------------------------------------------|
   * *        * * *

------------------------------------------------------------|
------------------------------------------------------------|
-----------------------7------------------------------------|
-----------------------7--7-7-7-----------------------------|
9--9-9-9/7-10-101010---5--5-5-5---7--7-7-7------------------|
7--7-7-7/5-8--8-8-8---------------5--5-5-5------------------|
   * *        * * *

Outro

-----------------------------------------------|
---7-6-4-------7-6-----------7-6-6------9-7-7--|
-------------------7---------------------------|
---5-4-2-------5-4-----------5-4-4------7-5-5--|
2----------2-------5------5----------7---------|
00---------00-------------33---------55--------|

last chord [A5] (dee dee dee!)
---
---
---
---
2--
0--
            
Submit corrections

↑ Back to top | Tablatures and chords for acoustic guitar and electric guitar, ukulele, drums are parodies/interpretations of the original songs. You may use it for private study, scholarship, research or language learning purposes only