» » »

Disturbed - Haunted Tabs

Artists:  A B C D E F G H I J K L M N O P Q R S T U V W X Y Z # 

Haunted Tabs

(ver. 3) Click to play this song!
Disturbed
 Rating:
4/5 (4 votes)

 Haunted lessons Tabs too difficult? Try these video lessons and learn fast
 
                Haunted - Disturbed

tuning - drop C (i think)


This is my first tab ever. Love this song so much, so I had to tab it


intro, played x3, repeated x2

D|-------------------------------|
A|-------------------------------|
F|-------------------------------|
C|-------------------------------|
G|----3----4----3----3----3----4-|
C|-(0)--(0)--(0)--(0)--(0)--(0)--|
pm  .    .    .    .    .    .

and in the back ground are some pinch harmonics. i tend to play them on the
6th and 8th frets on the 5th and 6th string, and bending them (use a tremolo
arm to bend if you hav one).

verse (part 1)

D|-------------------------|
A|-------------------------|
F|-------------------------|
C|--10101010----(66668888)-|
G|--10101010-x4-(66668888)-| <--- lower volume, possible with an effects
C|--10101010----(66668888)-|      pedal, for the () notes.
    10's not 1's + 0's

Verse (part 2)

              ending 1     ending 2                            \
D|-----------------------|----------|                          ------- \
A|-----------------------|----------|                           ------ \
F|-----------------------|----------|                            ----- \
C|--10101010----66668888-|-66665555-|                             ---- \
G|--10101010-x4-66668888-|-66665555-|                              --- \
C|--10101010----66668888-|-66665555-|                               -- \
                                                                      |
                                                                      |repeat
                                                                      | x2
D|------------------------------------------------------------------- \                 /
A|------------------------------------------------------------------- \                /
F|------------------------------------------------------------------- \               /
C|--10101010----66668888--13-----15----11-----8---------------------- \              /
G|--10101010-x4-66668888--13-x14-15-x4-11-x10-8-x4------------------- \             /
C|--10101010----66668888--13-----15----11-----8---------------------- \            /
                             not actual number of chords,      /
                             just a general idea

chorus (part 1)

the best i have is this (cant hear it very well). let the notes ring.
listen for the absolute timing.
D|-----------------------------------------|-----------------------------------------|
A|-----------------------------------------|-----------------------------------------|
F|-----------------------------------------|-----------------------------------------|
C|--10101010--10101010--5555--5555--66--55-|-10101010--10101010--8888--8888--1313-88-|
G|--10101010--10101010--5555--5555--66--55-|-10101010--10101010--8888--8888--1313-88-|
C|--10101010--10101010--5555--5555--66--55-|-10101010--10101010--8888--8888--1313-88-|

chorus (part 2), played for the chorus end.

D|------------------------------------------------|
A|------------------------------------------------|
F|------------------------------------------------|
C|--13131313--13131313--8888--8888-10-12-10----10-|
G|--13131313--13131313--8888--8888----------10-10-| let the last chord ring
C|--13131313--13131313--8888--8888-------------10-|

under the last chord, play the intro again, only 2x this time, and only once play 
listen to see what i mean. only occurs after the 1st chorus.

break:

D|--------------------------|
A|--------------------------|
F|--------------------------|
C|----6-5--6-5--6-5----5-6--| x9
G|--3----------------3------|
C|--------------------------|


verse (part 3) (played after the break, variation of verse (part 1))

D|-------------|
A|-------------|
F|-------------|
C|-10101010----|
G|-10101010-x4-|
C|-10101010----|

play the verse riff for the last chorus

outro

D|------------------------------------|---|---|---|-------|
A|------------------------------------|---|---|---|-------|
F|---12-12---11-11---7---8----7---3---|-5-|---|-5-|-----5-|
C|-0-------0-------0---0----0---0---0-|---|-5-|---|-5---5-| x4, once with
G|------------------------------------|---|---|---|-----3-|     each ending
C|------------------------------------|---|---|---|-------|


thats all the riffs in the song
            
Submit corrections


        Haunted lessons Hard to play? Try these video lessons and learn fast Haunted lessons
        
↑ Back to top | Tablatures and chords for acoustic guitar and electric guitar, ukulele, drums are parodies/interpretations of the original songs. You may use it for private study, scholarship, research or language learning purposes only