» » »

Disturbed - Haunted Tabs

Artists:  A B C D E F G H I J K L M N O P Q R S T U V W X Y Z # 

Haunted Tabs

(ver. 1) Click to play this song!
Disturbed
 Rating:
4/5 (4 votes)

 Haunted lessons Tabs too difficult? Try these video lessons and learn fast
 
                I've seen alot of people debating about this song and the tuning that it is in. So I 
i would throw out another version.

This IS the correct tuning for the song, check out Disturbed's DVD for Indestructible if 
don't believe me.
They have a whiteboard that clearly shows the tunings for all their songs.

Enjoy!

Tuning: Drop D and down 1/2 step (C# G# C# F# A# D#)


Intro/Verses:

D#|-----------------------------------------------------------|
A#|-----------------------------------------------------------|
F#|-----------------------------------------------------------|
C#|--9-9-9-9---9-9-9-9---9-9-9-9---9-9-9-9---5-5-5-5-7-7-7-7--|
G#|--9-9-9-9---9-9-9-9---9-9-9-9---9-9-9-9---5-5-5-5-7-7-7-7--|
C#|--9-9-9-9---9-9-9-9---9-9-9-9---9-9-9-9---5-5-5-5-7-7-7-7--|


D#|-----------------------------------------------------------|
A#|-----------------------------------------------------------|
F#|-----------------------------------------------------------|
C#|--9-9-9-9---9-9-9-9---9-9-9-9---9-9-9-9---5-5-5-5-4-4-4-4--|
G#|--9-9-9-9---9-9-9-9---9-9-9-9---9-9-9-9---5-5-5-5-4-4-4-4--|
C#|--9-9-9-9---9-9-9-9---9-9-9-9---9-9-9-9---5-5-5-5-4-4-4-4--|

D#|-----------------------------------------------------------|
A#|-----------------------------------------------------------|
F#|-----------------------------------------------------------|
C#|--9-9-9-9---9-9-9-9---9-9-9-9---9-9-9-9---5-5-5-5-7-7-7-7--|
G#|--9-9-9-9---9-9-9-9---9-9-9-9---9-9-9-9---5-5-5-5-7-7-7-7--|
C#|--9-9-9-9---9-9-9-9---9-9-9-9---9-9-9-9---5-5-5-5-7-7-7-7--|

D#|-----------------------------------|
A#|-----------------------------------|
F#|--777777777-9999-555555555---------|
C#|--777777777-9999-555555555---7777--|
G#|--555555555-7777-333333333---7777--|
C#|-----------------------------7777--|


Chorus:

D#|-------------------------------------------------|
A#|-------------------------------------------------|
F#|-------------------------------------------------|
C#|-9-9-9------4-4-4-5-5-4-4---9-9-9--7-7-7--12-10--|
G#|-9-9-9------4-4-4-5-5-4-4---9-9-9--7-7-7--12-10--|
C#|-9-9-9------4-4-4-5-5-4-4---9-9-9--7-7-7--12-10--|

D#|------------------------------------------------------|
A#|------------------------------------------------------|
F#|----------------------------7-7-7--9-9-9--7-7-7-------|
C#|-9-9-9------4-4-4-5-5-4-4---7-7-7--9-9-9--7-7-7---9~--|
G#|-9-9-9------4-4-4-5-5-4-4---5-5-5--7-7-7--5-5-5---9~--|
C#|-9-9-9------4-4-4-5-5-4-4-------------------------9~--|


Bridge: (Clean Effect w/ slight echo)

D#|------------------------------------------------|
A#|------------------------------------------------|
F#|------0-----0---0---0--------0-----0---0---0----|
C#|----4-----4---4---4---4----4-----4---4---4---4--|
G#|--2-----2---------------0------0----------------|
C#|------------------------------------------------|


Ending:
                Repeat x4
D#|---------------------------------------------|-----|
A#|---------------------------------------------|-----|
F#|---11-11---10-10-----------------------------|-----|
C#|--------------------11---12---11-------------|--9--|
G#|------------------------------------12---10--|--9--|
C#|-9-------9--------9----9----9----9-----9-----|--9--|
            
Submit corrections


        Haunted lessons Hard to play? Try these video lessons and learn fast Haunted lessons
        
↑ Back to top | Tablatures and chords for acoustic guitar and electric guitar, ukulele, drums are parodies/interpretations of the original songs. You may use it for private study, scholarship, research or language learning purposes only