» » »

Disturbed - Criminal Tabs

Artists:  A B C D E F G H I J K L M N O P Q R S T U V W X Y Z # 

Criminal Tabs

(ver. 2) Click to play this song!
Disturbed
 Rating:
4/5 (4 votes)

 Criminal lessons Tabs too difficult? Try these video lessons and learn fast
 
                -------------------------------------------------------------------------------
                             Disturbed - Criminal
-------------------------------------------------------------------------------

Hello, I've seen a few other tabs of this song, and I've tried them out and they sound
way to play the Verse, the Chorus and the Pre Chorus. So here it is.



Tuning: C#

e|---------------------------------------------------------------------------|
B|---------------------------------------------------------------------------|
G|---------------------------------------------------------------------------|
D|-------7-----------------8-----------8-------7------------------7---------1|
A|-------5-------3---------6-------3---8-------5--------3---------6-------3-1|
E|-000-0--00-0-35-535-000-0-00-0-35-53-8--000-0--00-0-35-535--00-0--00-035--1|

e|---------------------------------------------------------------------------|
B|---------------------------------------------------------------------------|
G|---------------------------------------------------------------------------|
D|-3/5-0-00-3p0------------3p0------------3p0-0h2h4-2-2-2-1-1-1-8------------|
A|-3/5-0-00-3p0------------3p0------------3p0-0h2h4-2-2-2-1-1-1-8------------|
E|-3/5-0-00-3p0-03356p0-00-3p0-03356p0-00-3p0-0h2h4-2-2-2-1-1-1-8------------|
Slide your finger on the fretboard while you hit those notes.

e|----------|
B|----------|
G|----------|
D|-7-7-7-77-|
A|-7-7-7-77-|
E|-7-7-7-77-|

e|------------------------------------------------------------------------------|
B|------------------------------------------------------------------------------|
G|------------------------------------------------------------------------------|
D|-----77----77----7----88---88----8-----12-10----10-10----8----7-7----7-7----3-|
A|-----55----55----5----55---55----5-----13-10----10-10----8----8-7----7-7----3-|
E|xxxx----xx----xx---xx----xx---xx----xx-12-10-xx-10-10-xx-8-xx-7-7-xx-7-7-xx-3-|

The x's are the dead notes, they go for the 3 lowest strings, and not only the top string.

I bet this is 99% correct.

Again, this is only these 3 riffs, not the whole song. If you want, you could go to
these 3 riffs he plays on that clip. And what I've written above is what I, to 99%, 
think is how he plays it. The Chorus might sound wierd if you dont play along with the song. But
if you lower the volume of your amp, or even turn it off, and you play along with the 
song, you will here that this is extremly close or even spot on.

Best regards Aleex.
            
Submit corrections


        Criminal lessons Hard to play? Try these video lessons and learn fast Criminal lessons
        
↑ Back to top | Tablatures and chords for acoustic guitar and electric guitar, ukulele, drums are parodies/interpretations of the original songs. You may use it for private study, scholarship, research or language learning purposes only