» » »

Disturbed - Criminal Tabs

Artists:  A B C D E F G H I J K L M N O P Q R S T U V W X Y Z # 

Criminal Tabs

(ver. 1) Click to play this song!
Disturbed
 Rating:
4/5 (4 votes)

 Criminal lessons Tabs too difficult? Try these video lessons and learn fast
 
                -------------------------------------------------------------------------------
-------------------------------------------------------------------------------

Tuning: Drop Db

Intro:
		( 4x )           
|---------------------------------------------------------------------------|
|---------------------------------------------------------------------------|
|---------------------------------------------------------------------------|
|-0---2--1----------------------1-0-----------------------------------------|
|-0---2--1-------------------3--1-0-----------------------------------------|
|-0---2--1---------------3-5----1-0-----------------------------------------|

				
							( 4x )			
|---------------------------------------------------------------------------|
|---------------------------------------------------------------------------|
|---------------------------------------------------------------------------|
|-0-0--0-7--------------------0-0--0-8--------------------------------------|
|-0-0--0-5---------3----------0-0--0-6-------3------------------------------|
|-0-0--0----0-3-5-----5-3-5---0-0--0---0-3-5---5-3--------------------------|


Verse:

|---------------------------------------------------------------------------|
|---------------------------------------------------------------------------|
|---------------------------------------------------------------------------|
|-0-0----2--1---------------------------------------------------------------|
|-0-0----2--1---------------------------------------------------------------|
|-0-0----2--1---------------------------------------------------------------|
				( 3x )
|---------------------------------------------------------------------------|
|---------------------------------------------------------------------------|
|-----------------------------------------2-2-2-2---------------------------|
|-3-0---0-0-0------3-0---0-0---2-1--------2-2-2-2---------------------------|
|-3-0---0-0-0------3-0---0-0---2-1--------0-0-0-0---------------------------|
|-3-0---0-0-0--3-5-3-0---0-0---2-1------------------------------------------|

Chorus:
						( 2x )
|---------------------------------------------------------------------------|
|---------------------------------------------------------------------------|
|---------------------------------------------------------------------------|
|-7-7---7-7---3-3--3-3---5-5--5-5--3-3--3-3---------------------------------|
|-5-5---5-5---0-0--0-0---3-3--3-3--1-0--1-0---------------------------------|
|---------------------------------------------------------------------------|

Intro ( 2x )

Verse

Chorus

Bridge:

|---------------------------------------------------------------------------|
|---------------------------------------------------------------------------|
|---------------------------------------------------------------------------|
|---------------------------------------------------------------------------|
|---------------------------------------------------------------------------|
|-0--0-0-0-0--0-0-0-0--0-0-0-0--0-0-0-0--0-3-3------------------------------|

						( 4x )
|---------------------------------------------------------------------------|
|---------------------------------------------------------------------------|
|---------------------------------------------------------------------------|
|-0--0-0-0-0--0-0-0-0--0-0-0-0--0-0-0-0--0-3-3------------------------------|
|-0--0-0-0-0--0-0-0-0--0-0-0-0--0-0-0-0--0-3-3------------------------------|
|-0--0-0-0-0--0-0-0-0--0-0-0-0--0-0-0-0--0-3-3------------------------------|

				( 2x )
|---------------------------------------------------------------------------|
|---------------------------------------------------------------------------|
|-------0-------------------------------------------------------------------|
|-3-3-----3-2-3-2-0---0-------0---------------------------------------------|
|-3-3---------------3---3-2-3-----------------------------------------------|
|-3-3-----------------------------------------------------------------------|

						( 2x )
|---------------------------------------------------------------------------|
|---------------------------------------------------------------------------|
|---------------------------------------------------------------------------|
|-7-------7-------7-------7-------7-------7---------------------------------|
|-5-------5-------5-------5-------5-------5---------------------------------|
|-0-0-0-0-0-0-0-0-0-0-0-0-0-0-0-0-0-0-0-0-0---------------------------------|

				( 4x )
|---------------------------------------------------------------------------|
|---------------------------------------------------------------------------|
|-------0-------------------------------------------------------------------|
|-3-3-----3-2-3-2-0---0-------0---------------------------------------------|
|-3-3---------------3---3-2-3-----------------------------------------------|
|-3-3-----------------------------------------------------------------------|

Final Chorus:


|---------------------------------------------------------------------------|
|---------------------------------------------------------------------------|
|---------------------------------------------------------------------------|
|-0--3----5----2--3-3-------------------------------------------------------|
|-0--1----3----0--3-3-------------------------------------------------------|
|-0---------------3-3-------------------------------------------------------|

						( 2x )
|---------------------------------------------------------------------------|
|---------------------------------------------------------------------------|
|---------------------------------------------------------------------------|
|-7-7---7-7---3-3--3-3---5-5--5-5--3-3--3-3---------------------------------|
|-5-5---5-5---0-0--0-0---3-3--3-3--1-0--1-0---------------------------------|
|---------------------------------------------------------------------------|

Lead:

				( 8x )
|-10-10-13-10-13-12-10-12---------------------------------------------------|
|---------------------------------------------------------------------------|
|---------------------------------------------------------------------------|
|---------------------------------------------------------------------------|
|---------------------------------------------------------------------------|
|---------------------------------------------------------------------------|

Outro:

|---------------------------------------------------------------------------|
|---------------------------------------------------------------------------|
|---------------------------------------------------------------------------|
|-7-------7-------7-------7-------7-------7---------------------------------|
|-5-------5-------5-------5-------5-------5---------------------------------|
|-0-0-0-0-0-0-0-0-0-0-0-0-0-0-0-0-0-0-0-0-0---------------------------------|


Playing Order:

Intro
Verse
Chorus
Intro ( 2x )
Verse
Chorus
Bridge
Final Chorus
Outro



I love Disturbed, this is a great song off a great album. Enjoy. 






| /  slide up
| \  slide down
| h  hammer-on
| p  pull-off
| ~  vibrato
| +  harmonic
| x  Mute note
===============================================================================
            
Submit corrections


        Criminal lessons Hard to play? Try these video lessons and learn fast Criminal lessons
        
↑ Back to top | Tablatures and chords for acoustic guitar and electric guitar, ukulele, drums are parodies/interpretations of the original songs. You may use it for private study, scholarship, research or language learning purposes only