Home » D » Die Toten Hosen »

Die Toten Hosen - Pushed Again Bass

Artists:  A B C D E F G H I J K L M N O P Q R S T U V W X Y Z # 

Pushed Again Bass

(ver. 3) Click to play this song!
Die Toten Hosen
-------------------------------------------------------------------------------
			     Die Toten Hosen - Pushed Again
-------------------------------------------------------------------------------
Hi !
To start with, I wanted to say that I'm sorry for my English, I'm from Germany.^^
I also have to admit that actually most of the credit goes to my bass teacher, because 
did most of the ear transcribing.

Ok, here we go:

r = rest
~ = let the note ring even if a new bar starts

VERSE 1:

rest until ~ 0:24

then:

"I'm feeling pushed again..."
  1 + 2 + 3 + 4 + 1 + 2 + 3 + 4 + 1 + 2 + 3 + 4 + 1 + 2 + 3 + 4 +
G|---------------|---------------|---------------|---------------|
D|---------------|0-0-0-0-0-0-0-0|---------------|0-0-0-0-0-0-0-0|
A|3-3-3-3-3-3-3-3|---------------|3-3-3-3-3-3-3-3|---------------|
E|---------------|---------------|---------------|---------------|

"Why should I go..."
  1 + 2 + 3 + 4 + 1 + 2 + 3 + 4 + 1 + 2 + 3 + 4 + 1 + 2 + 3 + 4 +
G|---------------|---------------|---------------|---------------|
D|---------------|---------------|---------------|---------------|
A|---------------|---------------|---------------|---------------|
E|0-0-r----------|---------------|0-0-r----------|---------------|

"I don't like it..."
  1 + 2 + 3 + 4 + 1 + 2 + 3 + 4 + 1 + 2 + 3 + 4 + 1 + 2 + 3 + 4 +
G|---------------|---------------|---------------|---------------|
D|---------------|---------------|---------------|---------------|
A|---------------|---------------|---------------|---------------|
E|0-0-r----------|---------------|0-0-r----------|---------------|

"I'm feeling pushed again..."
  1 + 2 + 3 + 4 + 1 + 2 + 3 + 4 + 1 + 2 + 3 + 4 + 1 + 2 + 3 + 4 +
G|---------------|---------------|---------------|---------------|
D|---------------|0-0-0-0-0-0-0-0|---------------|0-0-0-0-0-0-0-0|
A|3-3-3-3-3-3-3-3|---------------|3-3-3-3-3-3-3-3|---------------|
E|---------------|---------------|---------------|---------------|


CHORUS 1:
(This is only part "A", part "B" appears later.)

"Why can't you just..."
  1 + 2 + 3 + 4 + 1 + 2 + 3 + 4 +
G|---------------|---------------|
D|---------------|--------0-0-0-0| play this bit four times
A|--------3-3-3-3|---------------|
E|0-0-0-0--------|3-3-3-3--------|


BRIDGE / Guitar Solo 1:

  1 + 2 + 3 + 4 + 1 + 2 + 3 + 4 + 1 + 2 + 3 + 4 + 1 + 2 + 3 + 4 +
G|---------------|---------------|---------------|---------------|
D|---------------|---------------|---------------|---------------|
A|--------0-0-0-0|--------2-2-2-2|--------0-0-0-0|---------------|
E|0-0-0-0--------|3-3-3-3--------|0-0-0-0--------|3-3-3-3-2-2-3-3|

VERSE 2:
This part is similar to the part before.

"You're going fast..."
  1 + 2 + 3 + 4 + 1 + 2 + 3 + 4 + 1 + 2 + 3 + 4 + 1 + 2 + 3 + 4 +
G|---------------|---------------|---------------|---------------|
D|---------------|---------------|---------------|---------------| X2
A|--------0-r-0-0|--------2-2-r-2|--------0-0-r-0|---------------|
E|0-0-r-0--------|3-3-r-3--------|0-0-r-0--------|3-3-r-3-2-2-3-3|

"I'm feeling pushed again..."
  1 + 2 + 3 + 4 + 1 + 2 + 3 + 4 + 1 + 2 + 3 + 4 + 1 + 2 + 3 + 4 +
G|---------------|---------------|---------------|---------------|
D|---------------|0-0-0-0-0-0-0-0|---------------|0-0-0-0-0-0-0-0|
A|3-3-3-3-3-3-3-3|---------------|3-3-3-3-3-3-3-3|---------------|
E|---------------|---------------|---------------|---------------|

CHORUS 2:

Play part "A" (see above).

Then you play part "B":

"I'm sick..."                    "In my head..."
  1 + 2 + 3 + 4 + 1 + 2 + 3 + 4 + 1 + 2 + 3 + 4 + 1 + 2 + 3 + 4 +
G|---------------|---------------|---------------|0-0-0-0--------|
D|---------------|0-0-0-0-0-0-0-0|2-2-2-2-2-2-4-4|--------4-4-2-2|
A|3-3-3-3-3-3-3-3|---------------|---------------|---------------|
E|---------------|---------------|---------------|---------------|

"I'm scared     I'm being pushed  again..."
  1 + 2 + 3 + 4 + 1 + 2 + 3 + 4 + 1 + 2 + 3 + 4 + 1 + 2 + 3 + 4 +
G|---------------|---------------|---------------|---------------|
D|---------------|0-0-0-0-0-0-0-0|---------------|---------------|
A|3-3-3-3-3-3-3-3|---------------|2-2-2-2-2-2-2-2|---------------|
E|---------------|---------------|---------------|3-3-3-3-2-2-2-2|


BRIDGE / GUITAR SOLO 2:

(see verse 2)

 1 + 2 + 3 + 4 + 1 + 2 + 3 + 4 + 1 + 2 + 3 + 4 + 1 + 2 + 3 + 4 +
G|---------------|---------------|---------------|---------------|
D|---------------|---------------|---------------|---------------| X2
A|--------0-r-0-0|--------2-2-r-2|--------0-0-r-0|---------------|
E|0-0-r-0--------|3-3-r-3--------|0-0-r-0--------|3-3-r-3-2-2-3-3|


VERSE 3:

"It's getting more..."
  1 + 2 + 3 + 4 + 1 + 2 + 3 + 4 + 1 + 2 + 3 + 4 + 1 + 2 + 3 + 4 +
G|---------------|---------------|---------------|---------------|
D|---------------|---------------|---------------|---------------|
A|--------0-0-r--|--------2-2-r--|--------0-0-r--|---------------|
E|0-0-r----------|r---3-3--------|0-0-r----------|r---3-3-2-2-3-3|

"If you keep pushing..."
  1 + 2 + 3 + 4 + 1 + 2 + 3 + 4 + 1 + 2 + 3 + 4 + 1 + 2 + 3 + 4 +
G|---------------|---------------|---------------|---------------|
D|---------------|---------------|---------------|---------------|
A|--------0-0-r--|--------2-2-r--|--------0-0-r--|---------------|
E|0-0-r----------|r---3-3--------|0-0-r----------|3-3-3-3-2-2-3-3|

CHORUS 3 / OUTRO:

Play Part "A" first (see above).

Then it's part ALMOST part "B" (the last bar is different):

"I'm sick..."                    "In my head..."
  1 + 2 + 3 + 4 + 1 + 2 + 3 + 4 + 1 + 2 + 3 + 4 + 1 + 2 + 3 + 4 +
G|---------------|---------------|---------------|0-0-0-0--------|
D|---------------|0-0-0-0-0-0-0-0|2-2-2-2-2-2-4-4|--------4-4-2-2|
A|3-3-3-3-3-3-3-3|---------------|---------------|---------------|
E|---------------|---------------|---------------|---------------|

"I'm scared     I'm being pushed  again..."
  1 + 2 + 3 + 4 + 1 + 2 + 3 + 4 + 1 + 2 + 3 + 4 + 1 + 2 + 3 + 4 +
G|---------------|---------------|---------------|---------------|
D|---------------|0-0-0-0-0-0-0-0|---------------|---------------|
A|3-3-3-3-3-3-3-3|---------------|2-2-2-2-2-2-2-2|2-2-2-2-2-2-2-2|
E|---------------|---------------|---------------|---------------|

and then you play part "B" the normal way (as you did in chorus 2).

You end on this note:

G|---------------|
D|---------------|
A|---------------|
E|0~-------------|

It's a quite easy song to play, so have fun! (And, of course, please rate and/or 
leave a comment^^)
            
Submit corrections

↑ Back to top | Tablatures and chords for acoustic guitar and electric guitar, ukulele, drums are parodies/interpretations of the original songs. You may use it for private study, scholarship, research or language learning purposes only