Home » D » Die Toten Hosen »

Die Toten Hosen - Teil Von Mir Tabs

Artists:  A B C D E F G H I J K L M N O P Q R S T U V W X Y Z # 

Teil Von Mir Tabs

(ver. 1) Click to play this song!
Die Toten Hosen
Die Toten Hosen
Teil von mir
In aller Stille
von Tim Osterholt

Intro
|------------------------------------------------------------------|
|------------------------------------------------------------------|
|-3-3-3-3-3-3-5-3-7-7-7-0-7-7-7-0-2-2-2-2-3-3-3-3-3-3-3-3-2-2-2-2--|
|-5-5-5-5-5-5-5-5-7-7-7-0-4-4-4-0-1-1-1-1-1-1-1-1-0-0-0-0-0-0-0-0--|
|------------------------------------------------------------------|
|------------------------------------------------------------------|

Verse 1
|------------------------------------------------------------------|
|------------------------------------------------------------------|
|-3-3-3-3-3-3-5-3-7-7-7-0-7-7-7-0-2-2-2-2-3-3-3-3-3-3-3-3-2-2-2-2--|
|-5-5-5-5-5-5-5-5-7-7-7-0-4-4-4-0-1-1-1-1-1-1-1-1-0-0-0-0-0-0-0-0--|
|------------------------------------------------------------------|
|------------------------------------------------------------------| 2x

Verse 2
|------------------------------------------------------------------|
|-4-4-4-4-4-4-4-4-3-3-3-3-3-3-3-3-4-4-4-4-4-4-4-3-6-6-6-6-6-6-6-6--|
|-3-3-3-3-3-3-3-3-0-0-0-0-0-0-0-0-3-3-3-3-3-3-3-3-3-3-3-3-3-3-3-3--|
|------------------------------------------------------------------|
|------------------------------------------------------------------|
|------------------------------------------------------------------|

|------------------------------------------------------------------|
|-4-4-4-4-4-4-4-4-3-3-3-3-3-3-3-3----------------------------------|
|-3-3-3-3-3-3-3-3-0-0-0-0-0-0-0-0-3-3-3-3-3-3-3-3-2-2-2-2-2-2~-----|
|---------------------------------1-1-1-1-1-1-1-1-0-0-0-0-0-0~-----|
|------------------------------------------------------------------|
|------------------------------------------------------------------|

Verse 3
|-5-5-5-5-5-5-5-5--0-0-0-0-0-0-0-0--1-1-1-1-1-1-1-1--8--8--8--8---3-3-3-3--|
|-8-8-8-8-8-8-8-8--3-3-3-3-3-3-3-3--4-4-4-4-4-4-4-4--11-11-11-11--6-6-6-6--|
|-7-7-7-7-7-7-7-7--2-2-2-2-2-2-2-2--3-3-3-3-3-3-3-3--10-10-10-10--5-5-5-5--|
|-5-5-5-5-5-5-5-5--0-0-0-0-0-0-0-0--1-1-1-1-1-1-1-1--8--8--8--8---3-3-3-3--|
|-5-5-5-5-5-5-5-5--0-0-0-0-0-0-0-0--1-1-1-1-1-1-1-1--8--8--8--8---3-3-3-3--|
|-5-5-5-5-5-5-5-5--0-0-0-0-0-0-0-0--1-1-1-1-1-1-1-1--8--8--8--8---3-3-3-3—-|2x

Chorus
|-----------------5-5-5-5-5-5-5-5-----------------3-3-3-3-3-3-3-3--|
|-----------------8-8-8-8-8-8-8-8-----------------6-6-6-6-6-6-6-6--|
|-8-8-8-8-8-8-8-8-7-7-7-7-7-7-7-7-8-8-8-8-8-8-8-8-5-5-5-5-5-5-5-5--|
|-8-8-8-8-8-8-8-8-5-5-5-5-5-5-5-5-8-8-8-8-8-8-8-8-3-3-3-3-3-3-3-3--|
|-6-6-6-6-6-6-6-6-5-5-5-5-5-5-5-5-6-6-6-6-6-6-6-6-3-3-3-3-3-3-3-3--|
|-----------------5-5-5-5-5-5-5-5-----------------3-3-3-3-3-3-3-3--|

|-----------------5-5-5-5-5-5-5-5-8-8-8-8-8-8-8-8-8-8-8-8-3-3-3-3-0-0-0-0--|
|-----------------8-8-8-8-8-8-8-8-11-11-11-11-11-11-11-11-6-6-6-6-3-3-3-3--|
|-8-8-8-8-8-8-8-8-7-7-7-7-7-7-7-7-10-10-10-10-10-10-10-10-5-5-5-5-2-2-2-2--|
|-8-8-8-8-8-8-8-8-5-5-5-5-5-5-5-5-8--8--8--8--8--8--8--8--3-3-3-3-0-0-0-0--|
|-6-6-6-6-6-6-6-6-5-5-5-5-5-5-5-5-8--8--8--8--8--8--8--8--3-3-3-3-0-0-0-0--|
|-----------------5-5-5-5-5-5-5-5-8--8--8--8--8--8--8--8--3-3-3-3-0-0-0-0--|

Verse 1
Verse 2
Verse 3
Chorus

Solo

  G            D      B           F  A       G            D    B                  F
|-------------------------------------------------------------------------------------|
|------------------------------------15~-----------------------/15-15-15-15-13----15--|
|-12-12-14-12--------/15-15-17-15-14---------12-12-14-12------------------------------|
|-------------12~----------------------------------------12---------------------------|
|-------------------------------------------------------------------------------------|
|-------------------------------------------------------------------------------------|


  G              D              Eb              B    A
|---------------------------------------------------------|
|---------------------------------------------------------|
|-----/12~-----------/12~-----------/12~------------/12~--|
|---------------------------------------------------------|
|-/10------------/10------------/10-------------/10-------|
|---------------------------------------------------------|

  G              D              Eb              B    A
|--------------------------------------------------------------|
|--------------------------------------------------------------|
|-----/12~-----------/12~-----------/12~------------/12~-------|
|--------------------------------------------------------------|
|-/10------------/12------------/13-------------/13--------12--|
|--------------------------------------------------------------|

Verse 1
Chorus (2x)

Ende
|-5~-
|-8~--
|-7~--
|-5~--
|-5~--
|-5~--
            
Submit corrections

↑ Back to top | Tablatures and chords for acoustic guitar and electric guitar, ukulele, drums are parodies/interpretations of the original songs. You may use it for private study, scholarship, research or language learning purposes only