Home » D » Die Toten Hosen »

Die Toten Hosen - Pushed Again Bass

Artists:  A B C D E F G H I J K L M N O P Q R S T U V W X Y Z # 

Pushed Again Bass

(ver. 2) Click to play this song!
Die Toten Hosen
INTRO:

G|----------------------|-----------------------|------------------------|-----------------------|
D|----------------------|-----------------------|------------------------|-----------------------|
A|-----------0----------|------------2----------|--------------0---------|-----------------------|
E|--0-------------------|--3--------------------|--0---------------------|--3---------------2-3--|

Whispering voices in my head, 

G|----------------------|-----------------------|------------------------|-----------------------|
D|----------------------|-----------------------|------------------------|-----------------------|
A|-----------0----------|------------2----------|--------------0---------|-----------------------|
E|--0-------------------|--3--------------------|--0---------------------|--3---------------2-3--|

G|----------------------|-----------------------|------------------------|-----------------------|
D|----------------------|-----------------------|------------------------|-----------------------|
A|-----------0----------|------------2----------|--------------0---------|-----------------------|
E|--0-------------------|--3--------------------|--0---------------------|--3---------------2-3--|

I'm feeling pushed again...

G ------------------|-----------------| -----------------|-----------------|
D ------------------|-----------------| -----------------|-----------------|
A --3-3-3-3-3-3-3-3-|-5-5-5-5-5-5-5-5-|--3-3-3-3-3-3-3-3-|-5-5-5-5-5-5-5-5-|
E ------------------|-----------------| -----------------|-----------------|


Why should I go where everyone goes? .....

G|-----------------------|-----------------------|--------------------------|---------------------|
D|-----------------------|-----------------------|--------------------------|---------------------|
A|-----------0-----------|------------2----------|--------------0-----------|---------------------|
E|-0---------------------|--3--------------------|-0------------------------|--3---------------2-3|

G|-----------------------|-----------------------|--------------------------|---------------------|
D|-----------------------|-----------------------|--------------------------|---------------------|
A|-----------0-----------|------------2----------|--------------0-----------|---------------------|
E|-0---------------------|--3--------------------|-0------------------------|--3---------------2-3|

I'm feeling pushed again..pushed again. 

G ------------------|-----------------| -----------------|-----------------|
D ------------------|-----------------| -----------------|-----------------|
A --3-3-3-3-3-3-3-3-|-5-5-5-5-5-5-5-5-|--3-3-3-3-3-3-3-3-|-5-5-5-5-5-5-5-5-|
E ------------------|-----------------| -----------------|-----------------|

Why can't you just leave me alone? 

G ----------------|------------------|
D ----------------|------------------| 
A --7--7--3-3-3-3-|----------5-5-5-5-| 
E ----------------|--3--3------------| 

Solitude is a faithful friend. 

G ----------------|------------------|
D ----------------|------------------| 
A --7--7--3-3-3-3-|----------5-5-5-5-| 
E ----------------|--3--3------------| 

Turn the lights off - I'm not home, 

G ----------------|------------------|
D ----------------|------------------| 
A --7--7--3-3-3-3-|----------5-5-5-5-| 
E ----------------|--3--3------------| 

can't you see, I don't need your help? 

G ----------------|------------------|
D ----------------|------------------| 
A --7--7--3-3-3-3-|----------5-5-5-5-| 
E ----------------|--3--3------------|


G|----------------------|-----------------------|------------------------|-----------------------|
D|----------------------|-----------------------|------------------------|-----------------------|
A|-----------0----------|------------2----------|--------------0---------|-----------------------|
E|--0-------------------|--3--------------------|--0---------------------|--3---------------2-3--|

You're going fast when I wanna go slow,         / you make me run when I want to walk. 

G|----------------------|-----------------------|------------------------|-----------------------|
D|----------------------|-----------------------|------------------------|-----------------------|
A|-----------0----------|------------2----------|--------------0---------|-----------------------|
E|--0-------------------|--3--------------------|--0---------------------|--3---------------2-3--|

You're sending me down a rocky road,             /  I get confused when you start to talk. 

G|----------------------|-----------------------|------------------------|-----------------------|
D|----------------------|-----------------------|------------------------|-----------------------|
A|-----------0----------|------------2----------|--------------0---------|-----------------------|
E|--0-------------------|--3--------------------|--0---------------------|--3---------------2-3--|

I'm feeling pushed again... pushed again. 

G ------------------|-----------------| -----------------|-----------------|
D ------------------|-----------------| -----------------|-----------------|
A --3-3-3-3-3-3-3-3-|-5-5-5-5-5-5-5-5-|--3-3-3-3-3-3-3-3-|-5-5-5-5-5-5-5-5-|
E ------------------|-----------------| -----------------|-----------------|


Why can't you just leave me alone?

G ----------------|------------------|
D ----------------|------------------| 
A --7--7--3-3-3-3-|----------5-5-5-5-| 
E ----------------|--3--3------------| 

You're dragging me right to the edge.

G ----------------|------------------|
D ----------------|------------------| 
A --7--7--3-3-3-3-|----------5-5-5-5-| 
E ----------------|--3--3------------|

I've got to go when you jerk my rope,

G ----------------|------------------|
D ----------------|------------------| 
A --7--7--3-3-3-3-|----------5-5-5-5-| 
E ----------------|--3--3------------|

I don't know where the good times went. 

G ----------------|------------------|
D ----------------|------------------| 
A --7--7--3-3-3-3-|----------5-5-5-5-| 
E ----------------|--3--3------------|


And I'm sick of this pain in my head....

G|----------------|--------------|----------------|-------------------|
D|----------------|--------------|----------------|-------------------|
A|-3--3-3-3-3-3-3-|-5--5-5-5-5-5-|-7--7-7-7-7-7-7-|-10-10-9-9-7-7-5-5-|
E|----------------|--------------|----------------|-------------------|

G|----------------|--------------|----------------|-------------------|
D|----------------|--------------|----------------|-------------------|
A|-3--3-3-3-3-3-3-|-5--5-5-5-5-5-|-2--2-2-2-2-2-2-|-------------------|
E|----------------|--------------|----------------|-3--------2--------|



G|-----------------------|-----------------------|--------------------------|---------------------|
D|-----------------------|-----------------------|--------------------------|---------------------|
A|-----------0-----------|------------2----------|--------------0-----------|---------------------|
E|-0---------------------|--3--------------------|-0------------------------|--3---------------2-3|

G|-----------------------|-----------------------|--------------------------|---------------------|
D|-----------------------|-----------------------|--------------------------|---------------------|
A|-----------0-----------|------------2----------|--------------0-----------|---------------------|
E|-0---------------------|--3--------------------|-0------------------------|--3---------------2-3|


G|-----------------------|-----------------------|--------------------------|---------------------|
D|-----------------------|-----------------------|--------------------------|---------------------|
A|-----------0-----------|------------2----------|--------------0-----------|---------------------|
E|-0---------------------|--3--------------------|-0------------------------|--3---------------2-3|

G|-----------------------|-----------------------|--------------------------|---------------------|
D|-----------------------|-----------------------|--------------------------|---------------------|
A|-----------0-----------|------------2----------|--------------0-----------|---------------------|
E|-0---------------------|--3--------------------|-0------------------------|--3---------------2-3|



G|--------------------|-----------------|-----------------|-----------------|
D|--------------------|-----------------|-----------------|-----------------|
A|-----------0-0------|---------2-2-S-S-|---------0-0-s-s-|-----------------|
E|-0-0-S-S--------S-S-|-S-S-3-3---------|-0-0-S-S---------|-S-S-3-3-2-2-3-2-|

G|--------------------|-----------------|-----------------|-----------------|
D|--------------------|-----------------|-----------------|-----------------|
A|-----------0-0------|---------2-2-S-S-|---------0-0-s-s-|-----------------|
E|-0-0-S-S--------S-S-|-S-S-3-3---------|-0-0-S-S---------|-3-3-3-3-3-3-3-3-|



Why can't you just leave me alone? 

G ----------------|------------------|
D ----------------|------------------| 
A --7--7--3-3-3-3-|----------5-5-5-5-| 
E ----------------|--3--3------------| 

Solitude is a faithful friend. 

G ----------------|------------------|
D ----------------|------------------| 
A --7--7--3-3-3-3-|----------5-5-5-5-| 
E ----------------|--3--3------------| 

Turn the lights off - I'm not home, 

G ----------------|------------------|
D ----------------|------------------| 
A --7--7--3-3-3-3-|----------5-5-5-5-| 
E ----------------|--3--3------------| 

can't you see, I don't need your help? 

G ----------------|------------------|
D ----------------|------------------| 
A --7--7--3-3-3-3-|----------5-5-5-5-| 
E ----------------|--3--3------------|

And I'm sick of this pain in my head.
And I'm scared I'm being pushed - being pushed again.


G|----------------|--------------|----------------|-------------------|
D|----------------|--------------|----------------|-------------------|
A|-3--3-3-3-3-3-3-|-5--5-5-5-5-5-|-7--7-7-7-7-7-7-|-10-10-9-9-7-7-5-5-|
E|----------------|--------------|----------------|-------------------|


G|----------------|--------------|----------------|------------------|
D|----------------|--------------|----------------|------------------|
A|-3--3-3-3-3-3-3-|-5--5-5-5-5-5-|-2--2-2-2-2-2-2-|-2-2-2-2-2-2-2-2--|
E|----------------|--------------|----------------|------------------|

G|----------------|--------------|----------------|-------------------|
D|----------------|--------------|----------------|-------------------|
A|-3--3-3-3-3-3-3-|-5--5-5-5-5-5-|-7--7-7-7-7-7-7-|-10-10-9-9-7-7-5-5-|
E|----------------|--------------|----------------|-------------------|


G|----------------|--------------|----------------|-------------------|
D|----------------|--------------|----------------|-------------------|
A|-3--3-3-3-3-3-3-|-5--5-5-5-5-5-|-2--2-2-2-2-2-2-|-------------------|
E|----------------|--------------|----------------|-3--------2--------| 

G ----------------|
D ----------------| 
A ----------------|
E -0--------------|
            
Submit corrections

↑ Back to top | Tablatures and chords for acoustic guitar and electric guitar, ukulele, drums are parodies/interpretations of the original songs. You may use it for private study, scholarship, research or language learning purposes only