» » »

Dick Dale - Misirlou Tabs

Artists:  A B C D E F G H I J K L M N O P Q R S T U V W X Y Z # 

Misirlou Tabs

(ver. 2) Click to play this song!
Dick Dale
 Rating:
4/5 (11 votes)

 Misirlou lessons Tabs too difficult? Try these video lessons and learn fast
 
                -------------------------------------------------------------------------------
			     Miserlou – dick dale 
-------------------------------------------------------------------------------

Tuning: E A D G B e


    Please note that this is the pulp fiction one not one of his live
         Versions.     Also this does not have guitar in the trumpet solo 
                         But near the end has a little bit.
 This is my first one ive ever done so please e-mail me on how I could improve
   my tab that would be good
       
   

Pick a few times on each note and pick fast, if you cant don’t worry 
     Just play single notes.




e|--------------------------------|   section 1
B|--------------------------------|
G|--------------------------------|
D|--------------------------------|
A|--------------------------------| X2
E|-1-0-4-5-7-8-11-8-7-7-7-7-7-7/1-|

e|--------------------------------------------------|
B|--------------------------------------------------|
G|--------------------------------------------------|
D|--------------------------------------------------|
A|--------------------------------------------------|
E|-7-8-7-8-7-5-7-5-7-4-0-4-5-7-5-7-5-4-5-4-5-4-1-0--|     

e|-1-0-4-5-7-8-11-8-7-7-7-7-7-7/1--|	section 2
B|---------------------------------| 
G|---------------------------------|
D|---------------------------------| X2
A|---------------------------------|
E|---------------------------------|

e|-7-8-7-8-7-5-7-5-7-4-0-4-5-7-5-7-5-4-5-4-5-4-1-0---|
B|---------------------------------------------------|
G|---------------------------------------------------|
D|---------------------------------------------------|
A|---------------------------------------------------|
E|---------------------------------------------------|

Trumpet solo 
	Listen to song well THE PULP FICTION ONE to get it                
             Right

          He strums some notes a few times 	section 3
After solo play…

e|---------------------------------------------------------------------------|
B|---------------------------------------------------------------------------|
G|---------------------------------------------------------------------------|
D|---------------------------------------------------------------------------|
A|---------------------------------------------------------------------------|
E|--5-4-5-7-5-7-8-7-8-12-8-12-13-------13-12-13-12-10-12-10-12-10-8-7-7-7-7--|

e|-----------------------------|
B|-----------------------------|
G|-----------------------------|
D|-----------------------------|
A|-----------------------------|
E|--8-10-8-10-8-7-8-7-5-4-1-0--|



e|-1-0-4-5-7-8-11-8-7-7-7-7-7-7/1--|         section 2
B|---------------------------------|
G|---------------------------------|
D|---------------------------------| X2
A|---------------------------------|
E|---------------------------------|

e|-7-8-7-8-7-5-7-5-7-4-0-4-5-7-5-7-5-4-5-4-5-4-1-0---|
B|---------------------------------------------------|
G|---------------------------------------------------|
D|---------------------------------------------------|
A|---------------------------------------------------|
E|---------------------------------------------------|


| /  slide up
| \  slide down
| h  hammer-on
| p  pull-off
| ~  vibrato
| +  harmonic
| x  Mute note
===============================================================================
            
Submit corrections


        Misirlou lessons Hard to play? Try these video lessons and learn fast Misirlou lessons
        
↑ Back to top | Tablatures and chords for acoustic guitar and electric guitar, ukulele, drums are parodies/interpretations of the original songs. You may use it for private study, scholarship, research or language learning purposes only