» » »

Dick Dale - Miserlou Bass

Artists:  A B C D E F G H I J K L M N O P Q R S T U V W X Y Z # 

Miserlou Bass

(ver. 1) Click to play this song!
Dick Dale
 Rating:
4.4/5 (11 votes)

 Miserlou lessons Tabs too difficult? Try these video lessons and learn fast
 
                -----------------------------------------------------------------------------
-----------------------------------------------------------------------------


Tuning:EADG

low part
G|------1-2-4-5-8-5-4------1-2-4-5-8-5-4---5-4-5-4-2-4-2-4-2-1-2-1-2-1------|
D|--2-3----------------2-3----------------------------------------------2-3-|
A|--------------------------------------------------------------------------|
E|--------------------------------------------------------------------------|

G|-5-4-5-4-2-4-2-4-2--------------------------------------------------------|
D|--------------------2-3---------------------------------------------------|
A|--------------------------------------------------------------------------|
E|--------------------------------------------------------------------------|
high part
G|--9-10-13-14-16-17-20-17-16---\9-10-13-14-16-17-20-17-16---17-16-17-16-14-|
D|--------------------------------------------------------------------------|
A|--------------------------------------------------------------------------|
E|--------------------------------------------------------------------------|

G|16-14-16-14-13-10-13--16-14-16-14-13-14-13-14-10-9------------------------|
D|--------------------------------------------------------------------------|
A|--------------------------------------------------------------------------|
E|--------------------------------------------------------------------------|

| /  slide up
=============================================================================
            
Submit corrections


        Miserlou lessons Hard to play? Try these video lessons and learn fast Miserlou lessons
        
↑ Back to top | Tablatures and chords for acoustic guitar and electric guitar, ukulele, drums are parodies/interpretations of the original songs. You may use it for private study, scholarship, research or language learning purposes only