» » »

Dick Dale - Pipeline Tabs

Artists:  A B C D E F G H I J K L M N O P Q R S T U V W X Y Z # 

Pipeline Tabs

(ver. 1) Click to play this song!
Dick Dale
 Rating:
3.6/5 (7 votes)

 Pipeline lessons Tabs too difficult? Try these video lessons and learn fast
 
                "Pipeline" by Dick Dale and his Deltones: The King of Surf Guitar and the Father of Heavy Metal!
Tuning: Standard (EBGDAE)


E|----------------------------------------------------------|
B|----------------------------------------------------------|
G|----------------------------------------------------------|
D|----------------------------------------------------------|
A|--2--2--2--2--2--2--2--2----------------------------------|
E|-0--3--0--3--0--3--0--3-----------------------------------|

E|----------------------------------------------------------|
B|----------------------------------------------------------|
G|----------------------------------------------------------|
D|---0-2-0-2-4-2-0-2-4-2-4-2-0-2-0-4------------------------|
A|-2-------------------------------2------------------------|
E|----------------------------------------------------------|

E|----------------------------------------------------------|
B|----------------------------------------------------------|
G|---0-2-0-2-4-2-0-2-4-2-4-2-0-2-0-4------------------------|
D|-2-------------------------------2------------------------|
A|----------------------------------------------------------|
E|----------------------------------------------------------|


E|----------------------------------------------------------|
B|-----------------------------------------------1----------|
G|-----------------------------------------------2----------|
D|-4-4-4-5-5-5-4-4-4-5-5-5-4---4---4---4---4---4-2--(bend!)-|
A|-2-2-2-3-3-3-2-2-2-3-3-3-2-0-2-0-2-0-2-0-2-0-2-0----------|
E|----------------------------------------------------------|
            
Submit corrections


        Pipeline lessons Hard to play? Try these video lessons and learn fast Pipeline lessons
        
↑ Back to top | Tablatures and chords for acoustic guitar and electric guitar, ukulele, drums are parodies/interpretations of the original songs. You may use it for private study, scholarship, research or language learning purposes only