» » »

Dick Dale - Banzai Washout Tabs

Artists:  A B C D E F G H I J K L M N O P Q R S T U V W X Y Z # 

Banzai Washout Tabs

(ver. 2) Click to play this song!
Dick Dale
 Rating:
4/5 (4 votes)

 Banzai Washout lessons Tabs too difficult? Try these video lessons and learn fast
 
                Gtr I (E A D G B E) - 'Dick Dale - Electric Guitar w/ reverb'
Gtr II (E A D G B E) - 'Jerry Cole - Electric Guitar'


  Q=178
  N.C.
 4/4
  Gtrs I, II
  Wx4
|--------|
|--------|
|--------|
|--------|
|--------|
|--------|


  Em/B        G/D         F#/C#       B/F#
   W           W           W           W
|-^0--------|-^3--------|-^2--------|-^7----|
|-^0--------|-^3--------|-^2--------|-^7----|
|-^0--------|-^4--------|-^3--------|-^8----|
|-^2--------|-^5--------|-^4--------|-^9----|
|-^2--------|-^5--------|-^4--------|-^9----|
|-----------|-----------|-----------|-------|


  Em/B
   W          +W           +W
|-^0--------|-(0)--------|-(0)----|
|-^0--------|-(0)--------|-(0)----|
|-^0--------|-(0)--------|-(0)----|
|-^2--------|-(2)--------|-(2)----|
|-^2--------|-(2)--------|-(2)----|
|-----------|------------|--------|


                   Em/B
  Gtr I
          TP
  +H      H        S S S S S S S S  S  S S S E E
|-(0)-----------||-------------------------------|
|-(0)-----------||-------------------------------|
|-(0)-----------||-------------------------------|
|-(2)-----------||-------------------------------|
|-(2)-----------||-------------------------------|
|--------21\----||-0-0-0-0-0-0-0-0--0--0-0-0-0-2-|
|
| Gtr II
| +W               Q       E   E   +E    E   E E
|-(0)-----------||---------0---0---(0)---0---0-0-|
|-(0)-----------||---------0---0---(0)---0---0-0-|
|-(0)-----------||---------0---0---(0)-----------|
|-(2)-----------||-2-------2---2---(2)-----------|
|-(2)-----------||---------2---2---(2)-----------|
|---------------||-------------------------------|


  S S S S S S S S  S  S S S E E
|--------------------------------|
|--------------------------------|
|--------------------------------|
|--------------------------------|
|--------------------------------|
|-3-3-3-3-0-0-0-0--0--0-0-0-0-3--|
|
| Q       E   E   +E    E   E E
|---------0---0---(0)---0---0-0--|
|---------0---0---(0)---0---0-0--|
|---------0---0---(0)------------|
|-2-------2---2---(2)------------|
|---------2---2---(2)------------|
|--------------------------------|


  S S S S S S S S S S S S Q     S S S S S S S S  S  S E S S S S
|-----------------------------|---------------------------------|
|-----------------------------|---------------------------------|
|-----------------------------|---------------------------------|
|-----------------------------|---------------------------------|
|-2-2-2-2-2-2-2-2-0-0-0-0-----|-2-2-2-2-2-2-2-2--2--2-2-2-2-2-2-|
|-------------------------3---|---------------------------------|
|
| Q       Q       E   E   E E   Q       E   E   +E    E E   E
|---------0-------0---0---0-0-|---------0---0---(0)---0-0---0---|
|---------0-------0---0---0-0-|-0-------0---0---(0)---0-0---0---|
|---------0-------0---0---0-0-|-0-------0---0---(0)---0-0---0---|
|-2-------2-------2---2---2-2-|-2-------2---2---(2)---2-2---2---|
|-----------------------------|---------------------------------|
|-----------------------------|---------------------------------|


  Am
  S S S S S S S S  S  S S S E E
|---------------------------------|
|---------------------------------|
|---------------------------------|
|---------------------------------|
|-0-0-0-0-0-0-0-0--0--0-0-0-0-2---|
|---------------------------------|
|
| Q       E   E   +E    E   E E
|-0-------0---0---(0)---0---0-0---|
|-1-------1---1---(1)---1---1-1---|
|-2-------2---2---(2)---2---2-2---|
|-2-------2---2---(2)---2---2-2---|
|-0-------0---0---(0)---0---0-0---|
|---------------------------------|


  S S E S S S S  S  S S S E E   S S S S S S S S S S E E E
|-----------------------------|---------------------------|
|-----------------------------|---------------------------|
|-----------------------------|---------------------------|
|-----------------------------|-2-2-2-2-2-2-2-2-0-2-0---0-|
|-3-3-3-0-0-0-0--0--0-0-0-0-3-|-----------------------3---|
|-----------------------------|---------------------------|
|
| Q     E   E   +E    Q     E   E   E   E   E   E   E E E
|-------0---0---(0)---0-----0-|-0---0---0---0---0---0-0-0-|
|-1-----1---1---(1)---1-----1-|-1---1---1---1---1---1-1-1-|
|-2-----2---2---(2)---2-----2-|-2---2---2---2---2---------|
|-2-----2---2---(2)-----------|---------------------------|
|-0-----0---0---(0)-----------|---------------------------|
|-----------------------------|---------------------------|


  S S S S S S S S S S S S Q
|--------------------------------|
|--------------------------------|
|--------------------------------|
|-2-2-2-2-2-2-2-2-2-2-2-2--------|
|--------------------------------|
|-------------------------3/-----|
|
| Q       E   E   E   E   E  E
|-0-------0---0---0---0---0--0---|
|-1-------1---1---1---1---1--1---|
|-2-------2----------------------|
|-2------------------------------|
|--------------------------------|
|--------------------------------|


  B                     C
   E  E E E  q    q      E  E E  E   q    q
|-----7------7--------|-----8--------8-------|
|-----7------7--------|-----8--------8-------|
|-----8------8--------|-----9--------9-------|
|---------------------|----------------------|
|-----------------9---|-10------10-------10--|
|-/7------7-------7---|--8-------8--------8--|
|
|  Q.     E +E  E E E    Q.      E  +Q    q
|--7------7-(7)-7-7-7-|--8-------8--(8)---8--|
|--7------7-(7)-7-7-7-|--8-------8--(8)---8--|
|--8------8-(8)-8-8-8-|--9-------9--(9)---9--|
|--9------9-(9)---9---|-10------10-(10)--10--|
|--9------9-(9)-------|-10------10-(10)--10--|
|--7------7-(7)-------|--8-------8--(8)---8--|


  B                 C
  E  e E E q   q     E  e E  E   q     q
|----7-----7------|-----8--------8--------|
|----7-----7------|-----8--------8--------|
|----8-----8------|-----9--------9--------|
|-----------------|-----------------------|
|--------------9--|-10------10--------10--|
|-7------7-----7--|--8-------8---------8--|
|
| Q.     E E E q     Q.      E  +E  E  q
|-7------7-7-7----|--8--------------------|
|-7------7-7-7----|--8-------8--(8)-8--8--|
|-8------8-8-8-8--|--9-------9--(9)-9--9--|
|-9------9-----9--|-10------10-(10)---10--|
|-9------9-----9--|-10------10-(10)---10--|
|-7------7-----7--|--8-------8--(8)----8--|


  B                   C                       B
                                                             TP
  E  e E E  q    q     E  e E  E   q     q     Q  Q  H       W
|----7------7-------|-----8--------8--------|-------------|--------||
|----7------7-------|-----8--------8--------|-------------|--------||
|----8------8-------|-----9--------9--------|-------------|--------||
|-------------------|-----------------------|-/9----------|--------||
|----------------9--|-10------10--------10--|-/9----------|--------||
|-7------7-------7--|--8-------8---------8--|-/7----------|-19\----||
|
| Q.     E +E  E q     Q.      E  +E  E  q     H     H       W
|-7------7-(7)-7-7--|--8-------8--(8)-8--8--|--7-----7----|--7-----||
|-7------7-(7)-7-7--|--8-------8--(8)-8--8--|--7-----7----|--7-----||
|-8------8-(8)-8-8--|--9-------9--(9)-9--9--|--8-----8----|--8-----||
|-9------9-(9)---9--|-10------10-(10)---10--|--9-----9----|--9-----||
|-9------9-(9)---9--|-10------10-(10)---10--|--9-----9----|--9-----||
|-7------7-(7)---7--|--8-------8--(8)----8--|--7-----7----|--7-----||


  Em
  E S S S S S S  S  S S S S S S S
|---------------------------------|
|---------------------------------|
|---------------------------------|
|---------------------------------|
|---------------------------------|
|-0-0-0-0-0-0-0--0--0-0-0-0-0-0-0-|
|
| Q     E   E   +E    E   E   E
|-------0---0---(0)---0---0---0---|
|-------0---0---(0)---0---0---0---|
|-------0---0---(0)---------------|
|-2-----2---2---(2)---------------|
|-------2---2---(2)---------------|
|---------------------------------|


  S S S S S S S S  S  S S S E E   S S S S S S S S S S S S Q
|-------------------------------|-------------------------------|
|-------------------------------|-------------------------------|
|-------------------------------|-------------------------------|
|-------------------------------|-------------------------------|
|-------------------------------|-2-2-2-2-2-2-2-2-0-0-0-0-------|
|-2-3-3-3-0-0-0-0--0--0-0-0-0-2-|-------------------------3-----|
|
| Q       E   E   +E    E   E E   Q       Q       E   E   E E
|---------0---0---(0)---0---0-0-|---------0-------0---0---0-0---|
|---------0---0---(0)---0---0-0-|---------0-------0---0---0-0---|
|---------0---0---(0)-----------|---------0-------0---0---0-0---|
|-2-------2---2---(2)-----------|-2-------2-------2---2---2-2---|
|---------2---2---(2)-----------|-------------------------------|
|-------------------------------|-------------------------------|


  S S S S S S S S  S  S S S S S S S
|-----------------------------------|
|-----------------------------------|
|-----------------------------------|
|-----------------------------------|
|-2-2-2-2-2-2-2-2--2--2-2-2-2-2-2-2-|
|-----------------------------------|
|
| Q       E   E   +E    E   E   E
|---------0---0---(0)---0---0---0---|
|-0-------0---0---(0)---0---0---0---|
|-0-------0---0---(0)---0---0---0---|
|-2-------2---2---(2)---2---2---2---|
|-----------------------------------|
|-----------------------------------|


  Am
  S S S S S S S S  S  S S S E E   S S S S S S S S  S  S S S E E
|-------------------------------|--------------------------------|
|-------------------------------|--------------------------------|
|-------------------------------|--------------------------------|
|-------------------------------|--------------------------------|
|-0-0-0-0-0-0-0-0--0--0-0-0-0-2-|-3-3-3-3-0-0-0-0--0--0-0-0-0-3--|
|-------------------------------|--------------------------------|
|
| Q       E   E   +E    E   E E   Q       E   E   +E    Q     E
|-0-------0---0---(0)---0---0-0-|---------0---0---(0)---0-----0--|
|-1-------1---1---(1)---1---1-1-|-1-------1---1---(1)---1-----1--|
|-2-------2---2---(2)---2---2-2-|-2-------2---2---(2)---2-----2--|
|-2-------2---2---(2)---2---2-2-|-2-------2---2---(2)------------|
|-0-------0---0---(0)---0---0-0-|-0-------0---0---(0)------------|
|-------------------------------|--------------------------------|


  S S S S S S S S S S S S S S S S
|---------------------------------|
|---------------------------------|
|---------------------------------|
|-2-2-2-2-2-2-2-2-0-0-0-0---------|
|-------------------------3-3-3-3-|
|---------------------------------|
|
| E   E   E   E   E   E   E   E
|-0---0---0---0---0---0---0---0---|
|-1---1---1---1---1---1---1---1---|
|-2---2---2---2---2---------------|
|---------------------------------|
|---------------------------------|
|---------------------------------|


                              B
  S S S S S S S S S S E Q     E  e E E  q    q
|---------------------------|----7------7--------|
|---------------------------|----7------7--------|
|---------------------------|----8------8--------|
|-2-2-2-2-2-2-2-2-2-2-2-----|--------------------|
|---------------------------|----------------9---|
|-----------------------2s==|=7------7-------7---|
|
| Q       E   E   E   E E E   Q.     E +E  E E E
|-0-------0---0---0---0-0-0-|-7------7-(7)-7-7-7-|
|-1-------1---1---1---1-1-1-|-7------7-(7)-7-7-7-|
|-2-------2-----------------|-8------8-(8)-8-8-8-|
|-2-------------------------|-9------9-(9)---9---|
|---------------------------|-9------9-(9)-------|
|---------------------------|-7------7-(7)-------|


  C                      B
   E  e E  E   q    q    E  e E E q   q
|-----8--------8-------|----7-----7------|
|-----8--------8-------|----7-----7------|
|-----9--------9-------|----8-----8------|
|----------------------|-----------------|
|-10------10-------10--|--------------9--|
|--8-------8--------8--|-7------7-----7--|
|
|  Q.      E  +Q    q    Q.     E E E q
|--8-------8--(8)---8--|-7------7-7-7----|
|--8-------8--(8)---8--|-7------7-7-7----|
|--9-------9--(9)---9--|-8------8-8-8-8--|
|-10------10-(10)--10--|-9------9-----9--|
|-10------10-(10)--10--|-9------9-----9--|
|--8-------8--(8)---8--|-7------7-----7--|


  C                       B
   E  e E  E   q     q    E  e E E  q    q
|-----8--------8--------|----7------7-------|
|-----8--------8--------|----7------7-------|
|-----9--------9--------|----8------8-------|
|-----------------------|-------------------|
|-10------10--------10--|----------------9--|
|--8-------8---------8--|-7------7-------7--|
|
|  Q.      E  +E  E  q    Q.     E +E  E q
|--8--------------------|-7------7-(7)-7-7--|
|--8-------8--(8)-8--8--|-7------7-(7)-7-7--|
|--9-------9--(9)-9--9--|-8------8-(8)-8-8--|
|-10------10-(10)---10--|-9------9-(9)---9--|
|-10------10-(10)---10--|-9------9-(9)---9--|
|--8-------8--(8)----8--|-7------7-(7)---7--|


  C                       B
                                                TP   TP
   E  e E  E   q     q    Q   Q    H         E  Q.   H
|-----8--------8--------|------------------|----------------||
|-----8--------8--------|------------------|----------------||
|-----9--------9--------|------------------|----------------||
|-----------------------|------------------|----------------||
|-10------10--------10--|-9----------------|----------------||
|--8-------8---------8--|-7----------------|---15\---7\-----||
|
|  Q.      E  +E  E  Q    Q.    E +E  E Q    H       Q   Q
|--8-------8--(8)-8--8--|-7-----7-(7)-7-7--|-7-------7------||
|--8-------8--(8)-8--8--|-7-----7-(7)-7-7--|-7-------7------||
|--9-------9--(9)-9--9--|-8-----8-(8)-8-8--|-8-------8------||
|-10------10-(10)---10--|-9----------------|-9-------9------||
|-10------10-(10)---10--|-9----------------|----------------||
|--8-------8--(8)----8--|-7----------------|----------------||


  Em
  E E Q  H       W            W            W
|-------------|------------|------------|-------------|
|-------------|------------|------------|-------------|
|-------------|------------|------------|-------------|
|-------------|------------|------------|-------------|
|-------------|------------|------------|-------------|
|-0-----------|------------|------------|-------------|
|
| W             +W           +W           +H     H
|-0-----------|-(0)--------|-(0)--------|-(0)---------|
|-0-----------|-(0)--------|-(0)--------|-(0)---------|
|-0-----------|-(0)--------|-(0)--------|-(0)---------|
|-2-----------|-(2)--------|-(2)--------|-(2)---------|
|-------------|------------|------------|-------------|
|-------------|------------|------------|-------------|


  G/D
  Gtr II
  W          +W           +W           W
|-3--------|-(3)--------|-(3)--------|------|
|-3--------|-(3)--------|-(3)--------|------|
|-4--------|-(4)--------|-(4)--------|------|
|-5--------|-(5)--------|-(5)--------|------|
|-5--------|-(5)--------|-(5)--------|------|
|----------|------------|------------|------|


  C/G
   W           +W            W           +W
|--8--------|--(8)--------|--8--------|--(8)----|
|--8--------|--(8)--------|--8--------|--(8)----|
|--9--------|--(9)--------|--9--------|--(9)----|
|-10--------|-(10)--------|-10--------|-(10)----|
|-10--------|-(10)--------|-10--------|-(10)----|
|-----------|-------------|-----------|---------|


  B/F#       B/D#       B/F#        B/D#
  Gtr I
  W          W          W           H     E  S  S  S  S  S  S
|----------|----------|-----------|---------12-12-12-12-12-12--||
|----------|----------|-----------|---------12-12-12-12-12-12--||
|----------|----------|-----------|----------------------------||
|----------|----------|-----------|----------------------------||
|----------|----------|-----------|----------------------------||
|----------|----------|-----------|----------------------------||
|
| Gtr II
| W          W          H    H      Q  Q  Q        Q
|-7--------|----------|-7----7----|----------------------------||
|-7--------|-7--------|-7----7----|-7--7--7--------7-----------||
|-8--------|-4--------|-8----8----|-4--4--4--------4-----------||
|-9--------|-4--------|-9----9----|-4--4--4--------4-----------||
|-9--------|-6--------|-9----9----|-6--6--6--------6-----------||
|----------|----------|-----------|----------------------------||


  Em
   S  S  S  S  S  S  S  S   S   S  S  S  S  S  S  S
|-12-12-12-12-12-12-12-12-/12--12-12-12-12-12-12-12-|
|-12-12-12-12-12-12-12-12-/12--12-12-12-12-12-12-12-|
|---------------------------------------------------|
|---------------------------------------------------|
|---------------------------------------------------|
|---------------------------------------------------|
|
|  Q           E     E     +E      E     E     E
|--------------0-----0-----(0)-----0-----0-----0----|
|--------------0-----0-----(0)-----0-----0-----0----|
|--------------0-----0-----(0)----------------------|
|--2-----------2-----2-----(2)----------------------|
|--------------2-----2-----(2)----------------------|
|---------------------------------------------------|


   S  S  S  S  E  E  S   S S  S  E  E    E  E  E  E  S  S  E  E  E
|-15-15-12-12-------------------------|----------------------------|
|-------------15----15----------------|----------------------------|
|----------------16-15--15---12-12----|-12-------------------------|
|----------------------------------14-|----14-12----12-12-12----12-|
|-------------------------------------|----------14----------14----|
|-------------------------------------|----------------------------|
|
|  Q           E  E +E     E     E  E    Q     Q     E     E  E  E
|--------------0--0-(0)----0-----0--0-|--------0-----0-----0--0--0-|
|--------------0--0-(0)----0-----0--0-|--------0-----0-----0--0--0-|
|--------------0--0-(0)---------------|--------0-----0-----0--0--0-|
|--2-----------2--2-(2)---------------|--2-----2-----2-----2--2--2-|
|--------------2--2-(2)---------------|----------------------------|
|-------------------------------------|----------------------------|


   S  S  S  S  E  E  E   S  S  S  S  E
|-----------------------12-12-12-12-12-|
|-----------------------13-13-13-13-13-|
|--------------------------------------|
|-14-14-14-14-14-14--------------------|
|--------------------------------------|
|--------------------------------------|
|
|  Q           E  E +E   E     E     E
|--------------0--0-(0)--0-----0-----0-|
|--0-----------0--0-(0)--0-----0-----0-|
|--0-----------0--0-(0)--0-----0-----0-|
|--2-----------2--2-(2)--2-----2-----2-|
|--------------------------------------|
|--------------------------------------|


  Am
   E E  E E  S   S E S S S S   S S S S E E  S  S S S E E
|-12-0-12-0--8---8-7-7-7-0-0-|-5-5-5-5---------------------|
|-13---13---10--10-8-8-8-----|---------7-5-----------------|
|----------------------------|--------------8--8-8-5-5-----|
|----------------------------|-------------------------7---|
|----------------------------|-----------------------------|
|----------------------------|-----------------------------|
|
|  Q    E E +E     E E   E     Q       E E +E    Q     E
|--0----0-0-(0)----0-0---0---|---------0-0-(0)---0-----0---|
|--1----1-1-(1)----1-1---1---|-1-------1-1-(1)---1-----1---|
|--2----2-2-(2)----2-2---2---|-2-------2-2-(2)---2-----2---|
|--2----2-2-(2)----2-2---2---|-2-------2-2-(2)-------------|
|--0----0-0-(0)----0-0---0---|-0-------0-0-(0)-------------|
|----------------------------|-----------------------------|


  E E    +E  E a E E E E   E S S E S S S S E Q
|------------5-----------|-----------------------|
|------------------------|-----------------------|
|-5-7b8==(7)---7r7-5-7---|-----------------------|
|----------------------7-|-7-7-7-7-7-7-7-7-7-----|
|------------------------|-----------------------|
|------------------------|-------------------2s==|
|
| E E     E  E   E E E E   Q     E E   E   E E E
|-0-0-----0--0---0-0-0-0-|-0-----0-0---0---0-0-0-|
|-1-1-----1--1---1-1-1-1-|-1-----1-1---1---1-1-1-|
|-2-2-----2--2---2-------|-2-----2---------------|
|------------------------|-2---------------------|
|------------------------|-----------------------|
|------------------------|-----------------------|


  B                    C
  E  E E E  q    q      E  E E  E   q    q
|----7------7--------|-----8--------8-------|
|----7------7--------|-----8--------8-------|
|----8------8--------|-----9--------9-------|
|--------------------|----------------------|
|----------------9---|-10------10-------10--|
|-7------7-------7---|--8-------8--------8--|
|
| Q.     E +E  E E E    Q.      E  +Q    Q
|-7------7-(7)-7-7-7-|--8-------8--(8)---8--|
|-7------7-(7)-7-7-7-|--8-------8--(8)---8--|
|-8------8-(8)-8-8-8-|--9-------9--(9)---9--|
|-9------9-(9)---9---|-10------10-(10)--10--|
|-9------9-(9)-------|-10------10-(10)--10--|
|-7------7-(7)-------|--8-------8--(8)---8--|


  B                 C
  E  e E E q   q     E  e E  E   q     q
|----7-----7------|-----8--------8--------|
|----7-----7------|-----8--------8--------|
|----8-----8------|-----9--------9--------|
|-----------------|-----------------------|
|--------------9--|-10------10--------10--|
|-7------7-----7--|--8-------8---------8--|
|
| Q.     E E E q     Q.      E  +E  E  q
|-7------7-7-7----|--8--------------------|
|-7------7-7-7----|--8-------8--(8)-8--8--|
|-8------8-8-8-8--|--9-------9--(9)-9--9--|
|-9------9-----9--|-10------10-(10)---10--|
|-9------9-----9--|-10------10-(10)---10--|
|-7------7-----7--|--8-------8--(8)----8--|


  B                   C
  E  e E E  q    q     E  e E  E   q     q
|----7------7-------|-----8--------8--------|
|----7------7-------|-----8--------8--------|
|----8------8-------|-----9--------9--------|
|-------------------|-----------------------|
|----------------9--|-10------10--------10--|
|-7------7-------7--|--8-------8---------8--|
|
| Q.     E +E  E q     Q.      E  +E  E  q
|-7------7-(7)-7-7--|--8-------8--(8)-8--8--|
|-7------7-(7)-7-7--|--8-------8--(8)-8--8--|
|-8------8-(8)-8-8--|--9-------9--(9)-9--9--|
|-9------9-(9)---9--|-10------10-(10)---10--|
|-9------9-(9)---9--|-10------10-(10)---10--|
|-7------7-(7)---7--|--8-------8--(8)----8--|


  B                          Em
                TP
  Q  Q  H       W            S S S S S S S S  S  S S S E E
|------------|------------||-------------------------------|
|------------|------------||-------------------------------|
|------------|------------||-------------------------------|
|------------|------------||-------------------------------|
|-9----------|------------||-------------------------------|
|-7----------|-19\--------||-0-0-0-0-0-0-0-0--0--0-0-0-0-2-|
|
| H     H       W            Q       E   E   +E    E   E E
|-7-----7----|--7---------||---------0---0---(0)---0---0-0-|
|-7-----7----|--7---------||---------0---0---(0)---0---0-0-|
|-8-----8----|--8---------||---------0---0---(0)-----------|
|-9-----9----|--9---------||-2-------2---2---(2)-----------|
|-9-----9----|--9---------||---------2---2---(2)-----------|
|-7-----7----|--7---------||-------------------------------|


  S S S S S S S S  S  S S S E E
|-------------------------------|
|-------------------------------|
|-------------------------------|
|-------------------------------|
|-------------------------------|
|-3-3-3-3-0-0-0-0--0--0-0-0-0-3-|
|
| Q       E   E   +E    E   E E
|---------0---0---(0)---0---0-0-|
|---------0---0---(0)---0---0-0-|
|---------0---0---(0)-----------|
|-2-------2---2---(2)-----------|
|---------2---2---(2)-----------|
|-------------------------------|


  S S S S S S S S S S S S Q     S S S S S S S S  S  S E S S S S
|-----------------------------|---------------------------------|
|-----------------------------|---------------------------------|
|-----------------------------|---------------------------------|
|-----------------------------|---------------------------------|
|-2-2-2-2-2-2-2-2-0-0-0-0-----|-2-2-2-2-2-2-2-2--2--2-2-2-2-2-2-|
|-------------------------3---|---------------------------------|
|
| Q       Q       E   E   E E   Q       E   E   +E    E E   E
|---------0-------0---0---0-0-|---------0---0---(0)---0-0---0---|
|---------0-------0---0---0-0-|-0-------0---0---(0)---0-0---0---|
|---------0-------0---0---0-0-|-0-------0---0---(0)---0-0---0---|
|-2-------2-------2---2---2-2-|-2-------2---2---(2)---2-2---2---|
|-----------------------------|---------------------------------|
|-----------------------------|---------------------------------|


  Am
  S S S S S S S S  S  S S S E E
|---------------------------------|
|---------------------------------|
|---------------------------------|
|---------------------------------|
|-0-0-0-0-0-0-0-0--0--0-0-0-0-2---|
|---------------------------------|
|
| Q       E   E   +E    E   E E
|-0-------0---0---(0)---0---0-0---|
|-1-------1---1---(1)---1---1-1---|
|-2-------2---2---(2)---2---2-2---|
|-2-------2---2---(2)---2---2-2---|
|-0-------0---0---(0)---0---0-0---|
|---------------------------------|


  S S E S S S S  S  S S S E E   S S S S S S S S S S E E E
|-----------------------------|---------------------------|
|-----------------------------|---------------------------|
|-----------------------------|---------------------------|
|-----------------------------|-2-2-2-2-2-2-2-2-0-2-0---0-|
|-3-3-3-0-0-0-0--0--0-0-0-0-3-|-----------------------3---|
|-----------------------------|---------------------------|
|
| Q     E   E   +E    Q     E   E   E   E   E   E   E E E
|-------0---0---(0)---0-----0-|-0---0---0---0---0---0-0-0-|
|-1-----1---1---(1)---1-----1-|-1---1---1---1---1---1-1-1-|
|-2-----2---2---(2)---2-----2-|-2---2---2---2---2---------|
|-2-----2---2---(2)-----------|---------------------------|
|-0-----0---0---(0)-----------|---------------------------|
|-----------------------------|---------------------------|


  S S S S S S S S S S S S Q
|-------------------------------|
|-------------------------------|
|-------------------------------|
|-2-2-2-2-2-2-2-2-2-2-2-2-------|
|-------------------------------|
|-------------------------2-----|
|
| Q       E   E   E   E   E E
|-0-------0---0---0---0---0-0---|
|-1-------1---1---1---1---1-1---|
|-2-------2---------------------|
|-2-----------------------------|
|-------------------------------|
|-------------------------------|


  B                     C
   E  E E E  q    q      E  E E  E   q    q
|-----7------7--------|-----8--------8-------|
|-----7------7--------|-----8--------8-------|
|-----8------8--------|-----9--------9-------|
|---------------------|----------------------|
|-----------------9---|-10------10-------10--|
|-/7------7-------7---|--8-------8--------8--|
|
|  Q.     E +E  E E E    Q.      E  +Q    q
|--7------7-(7)-7-7-7-|--8-------8--(8)---8--|
|--7------7-(7)-7-7-7-|--8-------8--(8)---8--|
|--8------8-(8)-8-8-8-|--9-------9--(9)---9--|
|--9------9-(9)---9---|-10------10-(10)--10--|
|--9------9-(9)-------|-10------10-(10)--10--|
|--7------7-(7)-------|--8-------8--(8)---8--|


  B                 C
  E  e E E q   q     E  e E  E   q     q
|----7-----7------|-----8--------8--------|
|----7-----7------|-----8--------8--------|
|----8-----8------|-----9--------9--------|
|-----------------|-----------------------|
|--------------9--|-10------10--------10--|
|-7------7-----7--|--8-------8---------8--|
|
| Q.     E E E q     Q.      E  +E  E  q
|-7------7-7-7----|--8--------------------|
|-7------7-7-7----|--8-------8--(8)-8--8--|
|-8------8-8-8-8--|--9-------9--(9)-9--9--|
|-9------9-----9--|-10------10-(10)---10--|
|-9------9-----9--|-10------10-(10)---10--|
|-7------7-----7--|--8-------8--(8)----8--|


  B                   C                       B
                                                                 TP    TP
  E  e E E  q    q     E  e E  E   q     q    E e E e Q  Q    E  Q.    H
|----7------7-------|-----8--------8--------|---7-----------|----------------||
|----7------7-------|-----8--------8--------|---7-----------|----------------||
|----8------8-------|-----9--------9--------|---------8-----|----------------||
|-------------------|-----------------------|---------9-----|----------------||
|----------------9--|-10------10--------10--|-9-----9-9-----|----------------||
|-7------7-------7--|--8-------8---------8--|-7-----7-7-----|---19\---10\----||
|
| Q.     E +E  E q     Q.      E  +E  E  q    H       H       W
|-7------7-(7)-7-7--|--8-------8--(8)-8--8--|-7-------7-----|-7--------------||
|-7------7-(7)-7-7--|--8-------8--(8)-8--8--|-7-------7-----|-7--------------||
|-8------8-(8)-8-8--|--9-------9--(9)-9--9--|-8-------8-----|-8--------------||
|-9------9-(9)---9--|-10------10-(10)---10--|-9-------9-----|-9--------------||
|-9------9-(9)---9--|-10------10-(10)---10--|-9-------9-----|-9--------------||
|-7------7-(7)---7--|--8-------8--(8)----8--|-7-------7-----|-7--------------||


  Em
  E. S S S S S  S  S S S S S S S   S S S S S S S S  S  S S S S S E
|--------------------------------|---------------------------------|
|--------------------------------|---------------------------------|
|--------------------------------|---------------------------------|
|--------------------------------|---------------------------------|
|--------------------------------|---------------------------------|
|-0--0-0-0-0-0--0--0-0-0-0-0-0-0-|-0-0-0-0-0-0-0-0--0--0-0-0-2-4-2-|
|
| Q    E   E   +E    E   E   E     Q       E   E   +E    E   E   E
|-0----0---0---(0)---0---0---0---|-0-------0---0---(0)---0---0---0-|
|-0----0---0---(0)---0---0---0---|-0-------0---0---(0)---0---0---0-|
|-0----0---0---(0)---0---0---0---|-0-----------0---(0)---0---0---0-|
|-2------------------------------|-2-----------2---(2)-------------|
|--------------------------------|---------------------------------|
|--------------------------------|---------------------------------|


  S S S S S S S S  S  S S S S S S S
|-----------------------------------|
|-----------------------------------|
|-----------------------------------|
|-----------------------------------|
|-----------------------------------|
|-0-0-0-0-0-0-0-0--0--0-0-0-0-0-0-0-|
|
| Q       E   E   +E    E   E   E
|-0-------0---0---(0)---0---0---0---|
|-0-------0---0---(0)---0---0---0---|
|-0-------0---0---(0)---0---0---0---|
|-2---------------------------------|
|-----------------------------------|
|-----------------------------------|


  S S S S S S S S  S  S S S S S S S
|-----------------------------------|
|-----------------------------------|
|-----------------------------------|
|-----------------------------------|
|-----------------------------------|
|-0-0-0-0-0-0-0-0--0--0-0-0-2-4-2-4-|
|
| Q       E   E   +H
|-0-------0---0---(0)---------------|
|-0-------0---0---(0)---------------|
|-0-------0---0---(0)---------------|
|-2---------------------------------|
|-2---------------------------------|
|-----------------------------------|


  Q  S S S S  S  S S S S S S S   Q  S S S S  S  S S S S S S S
|------------------------------|-------------------------------|
|------------------------------|-------------------------------|
|------------------------------|-------------------------------|
|------------------------------|-------------------------------|
|------------------------------|-------------------------------|
|-0--0-0-0-0--0--0-0-0-0-0-0-0-|-0--0-0-0-0--0--0-0-0-2-4-2-4--|
|
| Q  E   E   +E    E   E   E     Q  E   E   +E    E   E   E
|-0--0---0---(0)---0---0---0---|-0--0---0---(0)---0---0---0----|
|-0--0---0---(0)---0---0---0---|-0--0---0---(0)---0---0---0----|
|-0--0-------------------------|-0-----------------------------|
|-2----------------------------|-2-----------------------------|
|-2----------------------------|-------------------------------|
|------------------------------|-------------------------------|


  S S S S S S S S  S  S S S S S S S   S  S S S S S S S  S  S S S S S S S
|-----------------------------------|------------------------------------|
|-----------------------------------|------------------------------------|
|-----------------------------------|------------------------------------|
|-----------------------------------|------------------------------------|
|-----------------------------------|------------------------------------|
|-0-0-0-0-0-0-0-0--0--0-0-0-0-0-0-0-|-0--0-0-0-0-0-0-0--0--0-0-0-2-4-2-4-|
|
| Q       E   E   +Q        E   E     Q.           E   +Q        E   E
|-0-------0---0---(0)-------0---0---|-0------------0---(0)-------0---0---|
|-0-------0---0---(0)-------0---0---|-0------------0---(0)-------0---0---|
|-0-------0-------------------------|-0------------0---(0)---------------|
|-2-------2-------------------------|-2----------------------------------|
|---------2-------------------------|-2----------------------------------|
|-----------------------------------|------------------------------------|


  Q  S S S S  S  S S S S S S S   S  S S S S S S S  S  S S S S S S S
|------------------------------|------------------------------------*|
|------------------------------|------------------------------------*|
|------------------------------|------------------------------------*|
|------------------------------|------------------------------------*|
|------------------------------|------------------------------------*|
|-0--0-0-0-0--0--0-0-0-0-0-0-0-|-0--0-0-0-0-0-0-0--0--0-0-0-0-0-0-0-*|
|
| Q  E   E   +E    E   E   E     Q.           E   +E    E   E   E
|-0--0---0---(0)---0---0---0---|-0------------0---(0)---0---0---0---*|
|-0--0---0---(0)---0---0---0---|-0------------0---(0)---0---0---0---*|
|-0--0-------------------------|-0----------------------------------*|
|-2----------------------------|-2----------------------------------*|
|-2----------------------------|-2----------------------------------*|
|------------------------------|------------------------------------*|
            
Submit corrections


        Banzai Washout lessons Hard to play? Try these video lessons and learn fast Banzai Washout lessons
        
↑ Back to top | Tablatures and chords for acoustic guitar and electric guitar, ukulele, drums are parodies/interpretations of the original songs. You may use it for private study, scholarship, research or language learning purposes only