Home » D » Destroy The Runner »

Destroy The Runner - Saints Tabs

Artists:  A B C D E F G H I J K L M N O P Q R S T U V W X Y Z # 

Saints Tabs

(ver. 3) Click to play this song!
Destroy The Runner

Guitar 1
|---------------------------------------------------------------------------|
|---------------------------------------------------------------------------|
|---------------------------------------------------------------------------|
|-12p-0-0-10p-0-10p-0-12p-0-0-10p-0-10p-0-12p-0-0-10p-0-10p-0---------------|
|---------------------------------------------------------------------------|
|---------------------------------------------------------------------------|


Guitar 2
|---------------------------------------------------------------------------|
|---------------------------------------------------------------------------|
|---------------------------------------------------------------------------|
|-8-------------------------------------------------------------------------|
|-8-------------------------------------------------------------------------|
|-8-------------------------------------------------------------------------|

Guitar 1
|---------------------------------------------------------------------------|
|---------------------------------------------------------------------------|
|---------------------------------------------------------------------------|
|-12p-0-0-10p-0-10p-0-12p-0-0-10p-0-10p-0-12p-0-0-10p-0-10p-0---------------|
|---------------------------------------------------------------------------|
|---------------------------------------------------------------------------|

Guitar 2
|---------------------------------------------------------------------------|
|---------------------------------------------------------------------------|
|---------------------------------------------------------------------------|
|-5-----------------------------------------7-------------------------------|
|-5-----------------------------------------7-------------------------------|
|-5-----------------------------------------7-------------------------------|

Guitar 1
|---------------------------------------------------------------------------|
|---------------------------------------------------------------------------|
|---------------------------------------------------------------------------|
|-12p-0-0-10p-0-10p-0-12p-0-0-10p-0-10p-0-12p-0-0-10p-0-10p-0---------------|
|---------------------------------------------------------------------------|
|---------------------------------------------------------------------------|
            
Submit corrections

↑ Back to top | Tablatures and chords for acoustic guitar and electric guitar, ukulele, drums are parodies/interpretations of the original songs. You may use it for private study, scholarship, research or language learning purposes only