Home » D » Destroy The Runner »

Destroy The Runner - Saints Tabs

Artists:  A B C D E F G H I J K L M N O P Q R S T U V W X Y Z # 

Saints Tabs

(ver. 2) Click to play this song!
Destroy The Runner
lol i figured out this tab at like 12:00 last night so i just made some random fills.
i also took the intro from some1 else so creds to that person:P well heres the song

P.S. not everything is correct but it sounds okay and itz only for 1 guitar, so some
might be all over the place

----------------------------------------------------------------------------
----------------------------------------------------------------------------

Tuning:Drop C - CGCFAD
Intro
D|----------------------|x8
A|----------------------|
F|----------------------|
C|-12-0-0-10-0-0-10-0-0-|
G|----------------------|
C|----------------------|
Pre Verse
D|----------------------------------------------------------------|
A|----------------------------------------------------------------|
F|----------------------------------------------------------------|
C|-12-0-0-10-0-0-10-0-0-15-0-0-12-0-0-12-0-0-15-0-0-12-0-0-12-0-0-|
G|----------------------------------------------------------------|
C|----------------------------------------------------------------|
Pre Verse Continued
D|----------------------|Repeat whole riff 4 times
A|----------------------|
F|----------------------|
C|-14-0-0-10-0-0-10-0-0-|
G|----------------------|
C|----------------------|
Verse 1(not too sure about this but gets the job done)
D|-----------------------------------------------------------------|
A|-----------------------------------------------------------------|
F|-----------------------------------------------------------------|
C|-12~-15~-19-17-14-10~-15~-19-17-14-10h*12~--15~-19-17-14-10~-15~-|
G|-----------------------------------------------------------------|
C|-----------------------------------------------------------------|
Verse 1 Continued
D|--------------------------|
A|--------------------------|
F|--------------------------|
C|-19-17-15-14--17-15-13-11-|
G|--------------------------|
C|--------------------------|
Chorus
D|----------------------------------------------------|
A|----------------------------------------------------|
F|-11-11-11-11-11-11-11-11----12-12-12-12-12-12-12-12-|
C|-x--x--x--x--x--x--x--x-----x--x--x--x--x--x--x--x--|
G|-9--9--9--9--9--9--9--9-----10-10-10-10-10-10-10-10-|
C|----------------------------------------------------|
Chorus Continued
D|------------------------------------|Repeat this whole riff 4 times
A|------------------------------------|
F|-7-7-7-7-7-7-7-7----5-5-5-5-5-5-5-5-|
C|-x-x-x-x-x-x-x-x----x-x-x-x-x-x-x-x-|
G|-5-5-5-5-5-5-5-5----3-3-3-3-3-3-3-3-|
C|------------------------------------|
Verse 2(not sure again but sounds close)
D|-------------------------------------------------------------------------|
A|-------------------------------------------------------------------------|
F|-------------------------------------------------------------------------|
C|-12----10----10----15----12----12----15----12----12----14----10----10----|
G|-------------------------------------------------------------------------|
C|----00----00----00----00----00----00----00----00----00----00----00----00-|
PM    ..    ..    ..    ..    ..    ..    ..    ..    ..    ..    ..    ..
Repeat the above riff 4 time and them do this:
D|------------------------------------------------------------------------|
A|------------------------------------------------------------------------|
F|------------------------------------------------------------------------|
C|-----12--12----12--12----12--12----10--10----15--15----15--15----10--10-|
G|------------------------------------------------------------------------|
C|-0000--00--0000--00--0000--00--0000--00--0000--00--0000--00--0000--00---|
PM ....  ..  ....  ..  ....  ..  ....  ..  ....  ..  ....  ..  ....  ..
At the end of the above riff, do this fill:
D|-----------|(if you listen closely to the song, after the above riff, it
A|-----------|sounds like something is about to explode. this fill should
F|-----------|be able to substitute for it)
C|-5su20-|
G|-5su20-|
C|-5su20-|
Repeat Chorus 4 times but at the end of the 2nd time, do this:
D|------|
A|------|
F|------|
C|-0000-|
G|-0000-|
C|-0000-|
PM ....
Repeat Intro x16
Repeat Pre Verse x4
Interlude(preferably on a clean setting with some wah/flanger affect)
D|----------------------------------------------------|
A|----------------------------------------------------|
F|-11-11-11-11-11-11-11-11----12-12-12-12-12-12-12-12-|
C|-x--x--x--x--x--x--x--x-----x--x--x--x--x--x--x--x--|
G|-9--9--9--9--9--9--9--9-----10-10-10-10-10-10-10-10-|
C|----------------------------------------------------|
Interlude Continued
D|------------------------------------|Do the whole riff 2x
A|------------------------------------|
F|-7-7-7-7-7-7-7-7----5-5-5-5-5-5-5-5-|
C|-x-x-x-x-x-x-x-x----x-x-x-x-x-x-x-x-|
G|-5-5-5-5-5-5-5-5----3-3-3-3-3-3-3-3-|
C|------------------------------------|
After the above riff, do this:
D|-----------|this is another close sounding fill:)
A|-9h12------|
F|------11-9-|
C|-----------|
G|-----------|
C|-----------|
Repeat Chorus x8 but on the last time, do this:
D|----------------------------------------------------|
A|----------------------------------------------------|
F|-11-11-11-11-11-11-11-11----12-12-12-12-12-12-12-12-|
C|-x--x--x--x--x--x--x--x-----x--x--x--x--x--x--x--x--|
G|-9--9--9--9--9--9--9--9-----10-10-10-10-10-10-10-10-|
C|----------------------------------------------------|

D|---------------------------------|
A|---------------------------------|
F|-7-(7)-(7)--5-(5)-(5)------------|
C|-x----------x----------0-(0)-(0)-|
G|-5-(5)-(5)--3-(3)-(3)--0-(0)-(0)-|
C|-----------------------0-(0)-(0)-|

Its not 100% right but it gets the job done. creds to the ppl who i got the intro from 
are appreciated:)and sorry itz kinda cramped-im just used to tabbing like
and for some reason- my palm mutes got screwed up so msg me if u know how to change that and

P.S. In this tab, ALL PALM MUTES ARE 0's ON THE LOW E, OR LOW C IN THIS CASE

| su  slide up
| sd  slide down
| h  hammer-on
| p  pull-off
| ~  vibrato
| +  harmonic
| x  Mute note
| h* Slow Hammer-on(wait for a second with the first note before hammering the second note)
| PM Palm mute
============================================================================
            
Submit corrections

↑ Back to top | Tablatures and chords for acoustic guitar and electric guitar, ukulele, drums are parodies/interpretations of the original songs. You may use it for private study, scholarship, research or language learning purposes only