Home » D » Destroyer 666 »

Destroyer 666 - The Last Revelation Tabs

Artists:  A B C D E F G H I J K L M N O P Q R S T U V W X Y Z # 

The Last Revelation Tabs
Version #1
Destroyer 666


Copy URL
Band:Destroyer 666


--------------------------------------------------------------------------------
Tuning: EADGBE (standard)

(work out strumming pattern on your own)
R1
----------------------
----------------------
----------------------
-1-4-3-3-3-3-3-3-3-3-3
-1-4-3-3-3-3-3-3-3-3-3
---2-1-1-1-1-1-1-1-1-1

R2
--------------------------------
--------------------------------
--------------------------------
-6-6-6-6-6-4-4-4-4-4-1-4-3-3-3-3
-6-6-6-6-6-4-4-4-4-4-1-4-3-3-3-3
-4-4-4-4-4-2-2-2-2-2---2-1-1-1-1

R3
(not quite tremolo, listen to it and just figure out the pattern)
-9--8-6
-------
-------
-------
-------
-------

R4
(tremolo picking)
-------------
-------------
-------------
-6--4--1-4-3-
-------------
-------------

Riff Orders
R1 x7
R2 x3
R1 x7 R3 comes after x2 of R1, and plays for x8
R2 x3 R4 x3
R1 x7 R3 comes after x2 of R1, and plays for x8

the rest fades out and R3 comes in again after a while and fades out with R1
            
Submit corrections

↑ Back to top | Tablatures and chords for acoustic guitar and electric guitar, ukulele, drums are parodies/interpretations of the original songs. You may use it for private study, scholarship, research or language learning purposes only