Home » D » Delirious »

Delirious - History Maker Bass

Artists:  A B C D E F G H I J K L M N O P Q R S T U V W X Y Z # 

History Maker Bass

(ver. 2) Click to play this song!
Delirious
History Maker by Delirious

Note: Every '-' represents a 32nd note and each line is two bars.

   Verse 1 & 2:
G ----------------------------------------------------------------|
D ----------------------------------------------------------------|
A ----------------------------------------------------------------|
E 5-5-5-------5-5-5---5-------5-5-5-5-5-------5-5-5---5-5-----5-5-|

G ----------------------------------------------------------------|
D ----------------------------------------------------------------|
A ----------------------------------------------------------------|
E 1-1-1-------1-1-1---1-------1-1-1-1-1-------1-1-1---1-1-----1-1-|

Play the above 4 times, twice for the intro and twice when the
vocals come in. Then play this:
G ----------------------------------------------------------------|
D ----------------------------------------------------------------|
A ----------------------------------------------------------------|
E 3-3-3-------3-3-3---3-------3-3-3-3-3-------3-3-3---3-3-----3-3-|

G ----------------------------------------------------------------|
D ----------------------------------------------------------------|
A ----------------------------------------------------------------|
E 1-1-1-------1-1-1---1-------1-1-1-1-1-------1-1-1---1-1-----1-1-|

G ----------------------------------------------------------------|
D ----------------------------------------------------------------|
A ----------------------------------------------------------------|
E 8-------------------------------7-------------------------------|

G ----------------------------------------------------------------|
D ----------------------------------------------------------------|
A ----------------------------------------------------------------|
E 5-------------------------------1-------------------------------|

Then play the same again for verse two but only play the first part
twice.

   Chorus:
G ----------------------------------------------------------------|
D ----------------------------------------------------------------|
A ----------------------------------------------------------------|
E 8---8---8---8---8---8---8---8---8---8---8---8---8---8---8---8---|

G ----------------------------------------------------------------|
D ----------------------------------------------------------------|
A ----------------------------------------------------------------|
E 5---5---5---5---5---5---5---5---1---1---1---1---1---1---1---1---|  X2


G ----------------------------------------------------------------|
D ----------------------------------------------------------------|
A ----------------------------------------------------------------|
E 8---8---8---8---8---8---8---8---7---7---7---7---7---7---7---7---|

G ----------------------------------------------------------------|
D ----------------------------------------------------------------|
A ----------------------------------------------------------------|
E 5---5---5---5---5---5---5---5---1---1---1---1---1---1---1---1---| X3


   Verse 3:
  ('A riff')
G ----------------------------------------------------------------|
D ----------------7/9-----7-----------------------7/9-----7-------|
A ------------7---------------7---------------7---------------7---|
E 5---5---------------------------5---5---------------------------|
  ('F riff')
G ----------------------------------------------------------------|
D ----------------3/5-----3-----------------------3/5-----3-------|
A ------------3---------------3---------------3---------------3---|
E 1---1---------------------------1---1---------------------------| X4


  ('G riff')
G ----------------------------------------------------------------|
D ----------------5/7-----5-------10------9-------7---5-----------|
A ------------5-------------------------------------------5-------|
E 3---3-------------------------------------------------------3---|
  ('F riff')
G ----------------------------------------------------------------|
D ----------------3/5-----3-----------------------3/5-----3-------|
A ------------3---------------3---------------3---------------3---|
E 1---1---------------------------1---1---------------------------|

G ----------------------------------------------------------------|
D ----------------------------------------------------------------|
A ----------------------------------------------------------------|
E 8---8---8---8---8---8---8---8---7---7---7---7---7---7---7---7---|

G ----------------------------------------------------------------|
D ----------------------------------------------------------------|
A ----------------------------------------------------------------|
E 5---5---5---5---5---5---5---5---1---1---1---1---1---1---1---1---|

Play the Chorus several times. After the first time, for the line:
"I'm gonna stand, I'm gonna run", play:

G ----------------------------------------------------------------|
D ----------------------------------------------------------------|
A ----------------------------------------------------------------|
E 5---5---5---5---5---5---5---5---7---7---7---7---7---7---7---7---|

G ----------------------------------------------------------------|
D ----------------------------------------------------------------|
A ----------------------------------------------------------------|
E 12--12--12--12--12--12--12--12--1---1---1---1---1---1---1---1---|

Then end on C (E 8---)
            
Submit corrections

↑ Back to top | Tablatures and chords for acoustic guitar and electric guitar, ukulele, drums are parodies/interpretations of the original songs. You may use it for private study, scholarship, research or language learning purposes only