Home » D » Delirious »

Delirious - History Maker Tabs

Artists:  A B C D E F G H I J K L M N O P Q R S T U V W X Y Z # 

History Maker Tabs

(ver. 1) Click to play this song!
Delirious
Standard Tuning (E B G D A E)

Verse 1:
Guitar comes in on (the second) "true":
e ----3-----3---------3-----3-------------------------------------
B --3-----3-----3---3-----3-----3-----6-----5-----3-----5-----6---
G 0---------------0-----------------5-----------------------------
D --------------------------------3-------------------------------
A ----------------------------------------------------------------
E ----------------------------------------------------------------
  G                               F
  1 & 2 & 3 & 4 & 1 & 2 & 3 & 4 & 1 & 2 & 3 & 4 & 1 & 2 & 3 & 4 & 

Playing the above F as a D barred on fret 3.[This is how he actually
plays it.]
Then strum each of C, G/B, Am, F once then,

Verse 2:
e ----------------------------------------------------------------
B ----3-------------------------------1---------------------------
G --2-------------------------------0-----------------------------
D 2-------------------------------3-------------------------------
A ----------------------------------------------------------------
E ---------------------------------------------------------------- x2

Then G, F as in verse one but strumming the chords rhythmically.
For the F:
e --------------------
B 6---5---3---5---6---
G 5---5---5---5---5---
D 3---3---3---3---3---
A --------------------
E --------------------

Again strum each of C, G/B, Am, F once and go into the chorus.


Chorus:
C, Am, F (C for 2 bars, Am, F for 1) x 2
C, G/B, Am, F (each for 1 bar) x 3

[If you make the chorus longer play the C, G/B, Am, F more.]
Strum the last F once only.  


Verse 3:
For the first part just strum the chords Am and Fmaj9 with wah-wah
or similar effect.

Then start this riff on "miracles":
e ----------------------------------------------------------------
B ----------------------0-----1-----------------------------------
G 2---------------2-----------------------------------------------
D --------------------------------3-------------------------------
A ----------------------------------------------------------------
E ----------------------------------------------------------------

e --------------------------------1-------------------------------
B ----------------------0-----1-----------------------------------
G 2---------------2-----------------------------------------------
D ----------------------------------------------------------------
A ----------------------------------------------------------------
E ----------------------------------------------------------------

Then play the the G, F riff as shown in verse 2, and then C, G/B, Am, F.

[CHORUS]

When the band stops this riff is played:
Part 1:
e ----------------------------------------------------------------
B 1-----1-1-0---3---1-------------------1-1-0---3---1-------------
G ------------------------0---0---2-----------------------2---2---
D ----------------------------------------------------------------
A ----------------------------------------------------------------
E ----------------------------------------------------------------

e ----------------------------------------------------------------
B ------1-1-0---3---1---------------------------------------------
G 0-----------------------0---0---2-------------------------------
D ------------------------------------------------3--2--0---------
A ----------------------------------------------------------------
E ----------------------------------------------------------------

Then the band comes back in and this riff is played.
Part 2:
e ----------------------------------------------------------------
B 1---------------3---------------1---------------1-0---1---------
G ------------------------------------------------------------2---
D ----------------------------------------------------------------
A ----------------------------------------------------------------
E ----------------------------------------------------------------

e ----------------------------------------------------------------
B --------------------------------------1-1-0---3---1---0---1-----
G 0-------------0h2-------0-------2-------------------------------
D ----------------------------------------------------------------
A ----------------------------------------------------------------
E ----------------------------------------------------------------

Then play: [C, G/B, Am, F] x 2, Chorus, Part 1, [C, G/B, Am, F] x 2, C.  
[END].

Have fun!
            
Submit corrections

↑ Back to top | Tablatures and chords for acoustic guitar and electric guitar, ukulele, drums are parodies/interpretations of the original songs. You may use it for private study, scholarship, research or language learning purposes only