» » »

Deftones - Minerva Tabs

Artists:  A B C D E F G H I J K L M N O P Q R S T U V W X Y Z # 

Minerva Tabs

(ver. 1) Click to play this song!
Deftones
 Rating:
4.3/5 (10 votes)

 Minerva lessons Tabs too difficult? Try these video lessons and learn fast
 
                [Intro, clean] Chino plays it but it is something like this:
C#|-10-10-10-10-10-10-10-10---------|-10-10-10-10-10-10-10-10---------| it's all downpicking
G#|-12-12-12-12-12-12-12-12---------|-12-12-12-12-12-12-12-12---------| differ between the picking strenth
E |--9--9--9--9--9--9--9--9---------|--9--9--9--9--9--9--9--9---------| heavily pick the chord towards the end
B |---------------------------------|---------------------------------|
F#|---------------------------------|--0--------0---------------------|
C#|---------------------------------|---------------------------------|
G#|---------------------------------|---------------------------------|

[Verse, distorted]
C#|---------------------------------|----------------------------------------------------| you wanna put some
G#|---------------------------------|----------------------------------------------------| quarter tone bends
E |-------------------16--16-16-----|-13-13-13-13-13-13-13-13-13b-13b-13b-13-13-13-13-13-| in there to make it
B |--------------------x---x--x-----|--x--x--x--x--x--x--x--x--x--x--x--x--x--x--x--x----| sound "open"
F#|-7-7-7-7-7-7-7-7-7-14--14-14-----|-11-11-11-11-11-11-11-11-11b-11b-11b-11-11-11-11-11-|
C#|-7-7-7-7-7-7-7-7-7---------------|----------------------------------------------------|
G#|-5-5-5-5-5-5-5-5-5---------------|----------------------------------------------------|

[1st Chorus, distorted]
C#|-------------------------------------|---------------------------------|
G#|-------------------------------------|---------------------------------|
E |-------------------------------------|---------------------------------|
B |-------------------------------------|---------------------------------|
F#|-7-7-7-7-7-7-7-7-7-7-7-7-7-7-7-7-7-7-|-9-9-9-9-9-9-9-9-9-9-9-9-9-9-9-9-|
C#|-7-7-7-7-7-7-7-7-7-7-7-7-7-7-7-7-7-7-|-9-9-9-9-9-9-9-9-9-9-9-9-9-9-9-9-|
G#|-5-5-5-5-5-5-5-5-5-5-5-5-5-5-5-5-5-5-|-7-7-7-7-7-7-7-7-7-7-7-7-7-7-7-7-|

[Verse, distorted]
C#|---------------------------------|----------------------------------------------------| you wanna put some
G#|---------------------------------|----------------------------------------------------| quarter tone bends
E |-------------------16--16-16-----|-13-13-13-13-13-13-13-13-13b-13b-13b-13-13-13-13-13-| in there to make it
B |--------------------x---x--x-----|--x--x--x--x--x--x--x--x--x--x--x--x--x--x--x--x----| sound "open"
F#|-7-7-7-7-7-7-7-7-7-14--14-14-----|-11-11-11-11-11-11-11-11-11b-11b-11b-11-11-11-11-11-|
C#|-7-7-7-7-7-7-7-7-7---------------|----------------------------------------------------|
G#|-5-5-5-5-5-5-5-5-5---------------|----------------------------------------------------|

[2nd Chorus, distorted]
C#|---------------------------------|---------------------------------|---------------------------------|
G#|---------------------------------|---------------------------------|---------------------------------|
E |---------------------------------|---------------------------------|---------------------------------|
B |---------------------------------|---------------------------------|---------------------------------|
F#|-7-7-7-7-7-7-7-7-7-7-7-7-7-7-7-7-|-9-9-9-9-9-9-9-9-9-9-9-9-9-9-9-9-|-7-7-7-7-7-7-7-7-7-7-7-7-7-7-7-7-|
C#|-7-7-7-7-7-7-7-7-7-7-7-7-7-7-7-7-|-9-9-9-9-9-9-9-9-9-9-9-9-9-9-9-9-|-7-7-7-7-7-7-7-7-7-7-7-7-7-7-7-7-|
G#|-5-5-5-5-5-5-5-5-5-5-5-5-5-5-5-5-|-7-7-7-7-7-7-7-7-7-7-7-7-7-7-7-7-|-5-5-5-5-5-5-5-5-5-5-5-5-5-5-5-5-|

C#|---------------------------------|--------------------------------|
G#|---------------------------------|--------------------------------|
E |---------------------------------|--------------------------------|
B |---------------------------------|-7-7-7-7-7-7-7-7-9-9-9-9-9-9-9--|
F#|-7-7-7-7-7-7-7-7-7-7-7-7-7-7-7-7-|-7-7-7-7-7-7-7-7-9-9-9-9-9-9-9--|
C#|-7-7-7-7-7-7-7-7-7-7-7-7-7-7-7-7-|-5-5-5-5-5-5-5-5-7-7-7-7-7-7-7--|
G#|-5-5-5-5-5-5-5-5-5-5-5-5-5-5-5-5-|--------------------------------|

[Intro, clean]
C#|-10-10-10-10-10-10-10-10---------|-10-10-10-10-10-10-10-10---------| it's all downpicking
G#|-12-12-12-12-12-12-12-12---------|-12-12-12-12-12-12-12-12---------| differ between the picking strenth
E |--9--9--9--9--9--9--9--9---------|--9--9--9--9--9--9--9--9---------|
B |---------------------------------|---------------------------------|
F#|---------------------------------|--0--------0---------------------|
C#|---------------------------------|---------------------------------|
G#|---------------------------------|---------------------------------|

[Verse, distorted]
C#|---------------------------------|----------------------------------------------------| you wanna put some
G#|---------------------------------|----------------------------------------------------| quarter tone bends
E |-------------------16--16-16-----|-13-13-13-13-13-13-13-13-13b-13b-13b-13-13-13-13-13-| in there to make it
B |--------------------x---x--x-----|--x--x--x--x--x--x--x--x--x--x--x--x--x--x--x--x----| sound "open"
F#|-7-7-7-7-7-7-7-7-7-14--14-14-----|-11-11-11-11-11-11-11-11-11b-11b-11b-11-11-11-11-11-|
C#|-7-7-7-7-7-7-7-7-7---------------|----------------------------------------------------|
G#|-5-5-5-5-5-5-5-5-5---------------|----------------------------------------------------|

[2nd Chorus, distorted]
C#|---------------------------------|---------------------------------|---------------------------------|
G#|---------------------------------|---------------------------------|---------------------------------|
E |---------------------------------|---------------------------------|---------------------------------|
B |---------------------------------|---------------------------------|---------------------------------|
F#|-7-7-7-7-7-7-7-7-7-7-7-7-7-7-7-7-|-9-9-9-9-9-9-9-9-9-9-9-9-9-9-9-9-|-7-7-7-7-7-7-7-7-7-7-7-7-7-7-7-7-|
C#|-7-7-7-7-7-7-7-7-7-7-7-7-7-7-7-7-|-9-9-9-9-9-9-9-9-9-9-9-9-9-9-9-9-|-7-7-7-7-7-7-7-7-7-7-7-7-7-7-7-7-|
G#|-5-5-5-5-5-5-5-5-5-5-5-5-5-5-5-5-|-7-7-7-7-7-7-7-7-7-7-7-7-7-7-7-7-|-5-5-5-5-5-5-5-5-5-5-5-5-5-5-5-5-|

C#|---------------------------------|--------------------------------|
G#|---------------------------------|--------------------------------|
E |---------------------------------|--------------------------------|
B |---------------------------------|-7-7-7-7-7-7-7-7-9-9-9-9-9-9-9--|
F#|-7-7-7-7-7-7-7-7-7-7-7-7-7-7-7-7-|-7-7-7-7-7-7-7-7-9-9-9-9-9-9-9--|
C#|-7-7-7-7-7-7-7-7-7-7-7-7-7-7-7-7-|-5-5-5-5-5-5-5-5-7-7-7-7-7-7-7--|
G#|-5-5-5-5-5-5-5-5-5-5-5-5-5-5-5-5-|--------------------------------|

[3rd Chorus, distorted]
C#|---------------------------------|---------------------------------|
G#|---------------------------------|---------------------------------|
E |---------------------------------|---------------------------------|
B |---------------------------------|-7-7-7-7-7-7-7-7-9-9-9-9-9-9-9---|
F#|-7-7-7-7-7-7-7-7-7-7-7-7-7-7-7-7-|-7-7-7-7-7-7-7-7-9-9-9-9-9-9-9---|
C#|-7-7-7-7-7-7-7-7-7-7-7-7-7-7-7-7-|-5-5-5-5-5-5-5-5-7-7-7-7-7-7-7---|
G#|-5-5-5-5-5-5-5-5-5-5-5-5-5-5-5-5-|---------------------------------|

[Outro, clean] Chino plays it but it is something like this:
C#|-10-10-10-10-10-10-10-10---------|-10-10-10-10-10-10-10-10---------| it's all downpicking
G#|-12-12-12-12-12-12-12-12---------|-12-12-12-12-12-12-12-12---------| differ between the picking strenth
E |--9--9--9--9--9--9--9--9---------|--9--9--9--9--9--9--9--9---------| 
B |---------------------------------|---------------------------------| slowly put less strentgh into the
F#|---------------------------------|---------------------------------| picking as it fades out
C#|---------------------------------|---------------------------------|
G#|---------------------------------|---------------------------------|

            
Submit corrections


        Minerva lessons Hard to play? Try these video lessons and learn fast Minerva lessons
        
↑ Back to top | Tablatures and chords for acoustic guitar and electric guitar, ukulele, drums are parodies/interpretations of the original songs. You may use it for private study, scholarship, research or language learning purposes only