» » »

Deftones - Christmas Tabs

Artists:  A B C D E F G H I J K L M N O P Q R S T U V W X Y Z # 

Christmas Tabs

(ver. 1) Click to play this song!
Deftones
 Rating:
4/5 (4 votes)

 Christmas lessons Tabs too difficult? Try these video lessons and learn fast
 
                i dont think the verse is exact but its as close as i could figure it

intro and outro
E|--------------------|
B|--------------------|
G|--------------------|
D|-2-h-3-3-3-po-2-2-2-|
A|-2-h-3-3-3-po-2-2-2-|
D|-2-h-3-3-3-po-2-2-2-|

verse (palm muted)
E|-------------------|
B|-------------------|
G|-------------------|
D|-2---------------2-|
A|-2---------------2-|
D|-2--8-7-5-7-5-4--2-|

chorus
E|------------------------------|
B|------------------------------|
G|------------------------------|
D|-2--7--8--5--4--2--7--8--5--4-|
A|-2--7--8--5--4--2--7--8--5--4-|
D|-2--7--8--5--4--2--7--8--5--4-|

egyptian part (near end)
E|------------------------|
B|------------------------|
G|-4--5--8--5--4--5--8--5-|
D|-2--3--6--3--2--3--6--3-|
A|-2--3--6--3--2--3--6--3-|
D|-2--3--6--3--2--3--6--3-|


happy playying!
            
Submit corrections


        Christmas lessons Hard to play? Try these video lessons and learn fast Christmas lessons
        
↑ Back to top | Tablatures and chords for acoustic guitar and electric guitar, ukulele, drums are parodies/interpretations of the original songs. You may use it for private study, scholarship, research or language learning purposes only