Home » D » Deftones »

Deftones - Cherry Waves Bass

Artists:  A B C D E F G H I J K L M N O P Q R S T U V W X Y Z # 

Cherry Waves Bass

(ver. 1) Click to play this song!
Deftones
[Intro]
 
No Bass
 
 
[Verse 1]
 
G|-----------------------------------|
D|----6-7-------7-------8-9---9/12---|
A|0-7-------0-8-----0-9-----0--------| x8
D|-----------------------------------|
 
 
[Pre Chorus]
 
G|-----------------------------------|
D|--------7---------------9---9/12---|
A|0-0-0-7---0-0-0-0-0-0-9---0--------| x4
D|-----------------------------------|
 
 
[Chorus]
 
G|----------------------------------------------------------------|
D|----------------------------------------------------------------|
A|5-------------------------------2-2-2-2-2-2-2-2-2-2-2-2/7-7-7-7-|
D|--0-0-0-0-0-0-0-0-0-0-0-0-0-0-0---------------------------------|
 
G|----------------------------------------------------------------|
D|----------------------------------------------------------------|
A|5-------------------------------2-2-2-2-2-2-2-2-2-2-2-2-2-0-0-2-|
D|--0-0-0-0-0-0-0-0-0-0-0-0-0-0-0---------------------------------|
 
G|----------------------------------------------------------------|
D|----------------------------------------------------------------|
A|5-------------------------------2~~~~~~~~~~~~~~~~~~~~~~~--------|
D|--0-0-0-0-0-0-0-0-0-0-0-4b~~~br---------------------------------|
 
 
[Interlude]
 
No Bass
 
 
[Verse 2]
 
G|-----------------------------------|
D|----6-7-------7-------8-9---9/12---|
A|0-7-------0-8-----0-9-----0--------| x8
D|-----------------------------------|
 
 
[Pre Chorus]
 
G|-----------------------------------|
D|--------7---------------9---9/12---|
A|0-0-0-7---0-0-0-0-0-0-9---0--------| x4
D|-----------------------------------|
 
 
[Chorus]
 
G|----------------------------------------------------------------|
D|----------------------------------------------------------------|
A|--------------------------------2-2-2-2-2-2-2-2-2-2-2-2/7-7-7-7-|
D|0-0-0-0-0-0-0-0-0-0-0-0-0-0-0-0---------------------------------|
 
G|----------------------------------------------------------------|
D|----------------------------------------------------------------|
A|5-------------------------------2-2-2-2-2-2-2-2-2-2-2-2-2-0-0-2-|
D|--0-0-0-0-0-0-0-0-0-0-0-0-0-0-0---------------------------------|
 
G|----------------------------------------------------------------|
D|----------------------------------------------------------------|
A|5-------------------------------2-2-2-2-2-2-2-2-2-2-2-2/7-7-7-7-|
D|--0-0-0-0-0-0-0-0-0-0-0-0-0-0-0---------------------------------|
 
G|----------------------------------------------------------------|
D|----------------------------------------------------------------|
A|5-------------------------------2-2-2-2-2-2-2-2-2-2-2-2-2-2-2-2-|
D|--0-0-0-0-0-0-0-0-0-0-0-0-0-0-0---------------------------------|
 
 
[Bridge]
 
G|----------------|
D|----------------|
A|----------------| x4
D|2-22-0-3-3-33-0-|
 
(Distortion On)
 
G|--------------------------------|
D|--------------------------------|
A|5/7-7-7-7-7-7-7-7-7-7-7-7-7-7-7-| x2
D|--------------------------------|
 
G|--------------------------------|--------------------------------|
D|--7/9-9-9-9-9-9-9-9-9-9-9-9-9-9-|9---------------9---------------|
A|7-------------------------------|--7-7-7-7-7-7-7---7-7-7-5-------|
D|--------------------------------|--------------------------7-5---|
 
 
[Chorus]
 
(Distortion Off)
 
G|----------------------------------------------------------------|  \
D|----------------------------------------------------------------|   \
A|5-------------------------------2-2-2-2-2-2-2-2-2-2-2-2/7-7-7-7-|    \
D|--0-0-0-0-0-0-0-0-0-0-0-0-0-0-0---------------------------------|     \
                                                                          x2
G|----------------------------------------------------------------|     /
D|----------------------------------------------------------------|    /
A|5-------------------------------2-2-2-2-2-2-2-2-2-2-2-2-2-0-0-2-|   /
D|--0-0-0-0-0-0-0-0-0-0-0-0-0-0-0---------------------------------|  /
 
G|----------------------------------------------------------------|
D|----------------------------------------------------------------|
A|5-------------------------------2-2-2-2-2-2-2-2-2-2-2-2/7-7-7-7-|
D|--0-0-0-0-0-0-0-0-0-0-0-0-0-0-0---------------------------------|
 
G|--------------------------------|
D|--------------------------------|
A|5-5-5-5-5-5-5-5-5-5-5-5-7-7-7-7-|
D|--------------------------------|
 
 
 
[Outro]
 
G|---------|
D|---------|
A|0-~~~~~~~|
D|---------|
            
Submit corrections

↑ Back to top | Tablatures and chords for acoustic guitar and electric guitar, ukulele, drums are parodies/interpretations of the original songs. You may use it for private study, scholarship, research or language learning purposes only