» » »

Deftones - Cant Even Breathe Tabs

Artists:  A B C D E F G H I J K L M N O P Q R S T U V W X Y Z # 

Cant Even Breathe Tabs

(ver. 1) Click to play this song!
Deftones
 Rating:
4/5 (4 votes)

 Cant Even Breathe lessons Tabs too difficult? Try these video lessons and learn fast
 
                
Tuned to Drop Db

  * = harmonic  / = slide 

  riff 1
  D#-----------------------|
  A#-----------------------|
  F#-----------------------|
  C#--9\8-8--8-9\8-8--8-0--|
  G#--9\8-8--8-9\8-8--8-0--|
  C#--9\8-8--8-9\8-8--8-0--|

  riff 2
  D#----------------------|
  A#----------------------|
  F#----------------------|
  C#--0--0-0--5-4-44-4--4-| x8
  G#--0--0-0--5-4-44-4--4-|
  C#--0--0-0--5-4-44-4--4-|

  riff 3
  D#------------------------------------------|
  A#------------------------------------------|
  F#--7-77-7-77-7-77-7-77-6-66-6-66-6-66-6-66-|
  C#--5-55-5-55-5-55-5-55-4-44-4-44-4-44-4-44-| x2
  G#--5-55-5-55-5-55-5-55-4-44-4-44-4-44-4-44-|
  C#--5-55-5-55-5-55-5-55-4-44-4-44-4-44-4-44-|

  repeat riff 2, riff 3

  riff 4
  D#--------------------------------------|
  A#--------------------------------------|
  F#--------------------------------------|
  C#--9\8-8--8-9\8-8--8----------***------| x4
  G#--9\8-8--8-9\8-8--8--***-***-555-***--|
  C#--9\8-8--8-9\8-8--8--555-444-----444--|


  D#----------|      
  A#----------|       bassline:
  F#----------|       F#-------------------|
  C#-0--------| x8    C#-------------------|
  G#-0--------|       G#-------------------| x12
  C#-0--------|       C#--/-7-\-0-/-10-9-\-|
    let ring...


  repeat riff 4, riff 2, riff 3

  end on:

  D#----------|
  A#----------|
  F#----------|
  C#-0--------|
  G#-0--------|
  C#-0--------|
    let ring...
            
Submit corrections


        Cant Even Breathe lessons Hard to play? Try these video lessons and learn fast Cant Even Breathe lessons
        
↑ Back to top | Tablatures and chords for acoustic guitar and electric guitar, ukulele, drums are parodies/interpretations of the original songs. You may use it for private study, scholarship, research or language learning purposes only