» » »

Deftones - Answers Tabs

Artists:  A B C D E F G H I J K L M N O P Q R S T U V W X Y Z # 

Answers Tabs

(ver. 1) Click to play this song!
Deftones
 Rating:
3.7/5 (6 votes)

 Answers lessons Tabs too difficult? Try these video lessons and learn fast
 
                ---------------------------------------------------------------------
---------------------------------------------------------------------

Tuning: Drop D

Verse Chords

    Fm  Cm  Bbm
e|-------------------------------------------------------------------|
B|--9---4---2--------------------------------------------------------|
G|--10--5---3--------------------------------------------------------|
D|--10--5---3--------------------------------------------------------|
A|--8---3---1--------------------------------------------------------|
D|-------------------------------------------------------------------|

Note: The opening chord of the song is also Fm

Segue into heavy part (Distortion on)
e|--------------------------------------------------------------------|
B|--9---0-------------------------------------------------------------|
G|--10--0-------------------------------------------------------------|
D|--10--0-------------------------------------------------------------|
A|--8---0-------------------------------------------------------------|
D|------0---13\-------------------------------------------------------|

e|-------------------------------------------------------------------|
B|-------------------------------------------------------------------|
G|-------------------------------------------------------------------|
D|--1/3-33-3-3-3-1/4-44----------------------------------------------|
A|--1/3-33-3-3-3-1/4-44----------------------------------------------|
D|--1/3-33-3-3-3-1/4-44----------------------------------------------|

e|-------------------------------------------------------------------|
B|-------------------------------------------------------------------|
G|--5-5/8-88-8\5-5--3-3/6-66-6\3-3-----------------------------------|
D|--5---------------3------------------------------------------------|
A|--3-3/6-66-6\3-3--1-1/4-44-4\1-1-----------------------------------|
D|-------------------------------------------------------------------|

e|-------------------------------------------------------------------|
B|-------------------------------------------------------------------|
G|-------------------------------------------------------------------|
D|--1/3-33333-3-3-1/4-44---------------------------------------------|
A|--1/3-33333-3-3-1/4-44---------------------------------------------|
D|--1/3-33333-3-3-1/4-44---------------------------------------------|
Pm     |-----|

e|-------------------------------------------------------------------|
B|--4/6-66-6\4---6-6-6\4---------------------------------------------|
G|-------------5---------5-------------------------------------------|
D|-------------------------------------------------------------------|
A|-------------------------------------------------------------------|
D|-------------------------------------------------------------------|

e|-------------------------------------------------------------------|
B|-------------------------------------------------------------------|
G|--5---8---10--13---12---12/10--------------------------------------|
D|-------------------------------------------------------------------|
A|--3---6---8---11---10---10/8---------------------------------------|
D|-------------------------------------------------------------------|

e|------------------10--10-------------------------------------------|
B|---9--9----9--9---13--13---9--9------------------------------------|
G|--12-12b--12-12b----------12-12b-----------------------------------|
D|-------------------------------------------------------------------|
A|-------------------------------------------------------------------|
D|-------------------------------------------------------------------|

e|--8pb~~~~~-11-13pb~~~~~/-18pb~~~~~------18\------------------------|
B|-----------------------------------17------------------------------|
G|-------------------------------------------------------------------|
D|-------------------------------------------------------------------|
A|-------------------------------------------------------------------|
D|-------------------------------------------------------------------|

End Part

e|-------------------------------------------------------------------|
B|-------------------------------------------------------------------|
G|--12---8---10--13---12---12/13-12-10-------------------------------|
D|-------------------------------------------------------------------|
A|--10---6---8---11---10---10/11-10-8--------------------------------|
D|-------------------------------------------------------------------|

************************************

| /   slide up
| \   slide down
| h   hammer-on
| p   pull-off
| ~   vibrato
| +   harmonic
| x   Mute note
| b   Bend
| pb  Pre-bend
| br  Bend release
| pbr Pre-bend release
| brb Bend release bend

************************************
            
Submit corrections


        Answers lessons Hard to play? Try these video lessons and learn fast Answers lessons
        
↑ Back to top | Tablatures and chords for acoustic guitar and electric guitar, ukulele, drums are parodies/interpretations of the original songs. You may use it for private study, scholarship, research or language learning purposes only