Home » D » Deathstars »

Deathstars - Cyanide Tabs

Artists:  A B C D E F G H I J K L M N O P Q R S T U V W X Y Z # 

Cyanide Tabs

(ver. 2) Click to play this song!
Deathstars
Great song, Dead Easy to play.

'Intro'..(16 Secs) Play Twice.
"Cyanide"
E|-----------------------------------------|
B|-----------------------------------------|
G|-------------------------------3-3--3-3--|
D|-3-3--3-3--3-3--3-3--1-1--1-1--3-3--3-3--|
A|-3-3--3-3--3-3--3-3--1-1--1-1--1-1--1-1--|
D|-3-3--3-3--3-3--3-3--1-1--1-1------------|

'Main Riff'..(31 Secs) Play Twice.
"Drink Cyanide"
E|-------------------------------|
B|-------------------------------|
G|-------------------3-----------|
D|-3------6-5-1------3-------5-6-|
A|-3------6-5-1------1-------5-6-|
D|-3------6-5-1--------------5-6-|

Verse1. (46 secs)
------
'Bridge'(1:01)Play Twice.
"Play"
E|-------------------------------|
B|-------------------------------|
G|-------------3-----------------|
D|-3-----1-----3-----------------|
A|-3-----1-----1-----------------|
D|-3-----1-----------------------|

'Chorus'(1:20)Play Twice.
"So face the dark"
E|-------------------------------|
B|-------------------------------|
G|-------------------3-----------|
D|-3------6-5-1------3-------5-6-|
A|-3------6-5-1------1-------5-6-|
D|-3------6-5-1--------------5-6-|

Verse 2. (1:35)
-------
'Bridge'(1:49)Play Twice.
"Run"
E|-------------------------------|
B|-------------------------------|
G|-------------3-----------------|
D|-3-----1-----3-----------------|
A|-3-----1-----1-----------------|
D|-3-----1-----------------------|

'Chorus'(2:08)Play Four times.
"So face the dark"
E|-------------------------------|
B|-------------------------------|
G|-------------------3-----------|
D|-3------6-5-1------3-------5-6-|
A|-3------6-5-1------1-------5-6-|
D|-3------6-5-1--------------5-6-|

'Mid Eight' (2:38) Play twice.
E|-----------------------------------|
B|-----------------------------------|
G|-----------------------------------|
D|-6-6--6-6--6-6-6-6--8-8--8-8-6-5---|
A|-6-6--6-6--6-6-6-6--8-8--8-8-6-5---|
D|-6-6--6-6--6-6-6-6--8-8--8-8-6-5---|

Then Back into the Intro Riff...(2:53)Play twice.

E|-----------------------------------------|
B|-----------------------------------------|
G|-------------------------------3-3--3-3--|
D|-3-3--3-3--3-3--3-3--1-1--1-1--3-3--3-3--|
A|-3-3--3-3--3-3--3-3--1-1--1-1--1-1--1-1--|
D|-3-3--3-3--3-3--3-3--1-1--1-1------------|

'3rd Verse'(3:08)
"When the Dark..."
E|-------------------------------|
B|-------------------------------|
G|-------------------3-----------|
D|-3------6-5-1------3-------5-6-|
A|-3------6-5-1------1-------5-6-|
D|-3------6-5-1--------------5-6-|

'Chorus' (3:22)Play Twice.
E|-------------------------------|
B|-------------------------------|
G|-------------------3-----------|
D|-3------6-5-1------3-------5-6-|
A|-3------6-5-1------1-------5-6-|
D|-3------6-5-1--------------5-6-|

Ending (3:37)

E|--------------------------------|
B|--------------------------------|
G|--------------------------------|
D|-6-6-6-6-8-5--3-----------------|
A|-6-6-6-6-8-5--3-----------------|
D|-6-6-6-6-8-5--3-----------------|

The Middle eight part, and the outro is possibly wrong. Please let me know if you can 
it.
The Rest of it should be right. This is my 1st ever tab, so i hope i didn't do too 
Thanks alot. Dave
            
Submit corrections

↑ Back to top | Tablatures and chords for acoustic guitar and electric guitar, ukulele, drums are parodies/interpretations of the original songs. You may use it for private study, scholarship, research or language learning purposes only