Home » D » Deathstars »

Deathstars - Cyanide Bass

Artists:  A B C D E F G H I J K L M N O P Q R S T U V W X Y Z # 

Cyanide Bass

(ver. 1) Click to play this song!
Deathstars
Artist - Deathstars
Song - Cyanide
Tuning - CGCF

Intro
|----------------|
|----------------|
|----------3-----| x2
|-5--8-7-3---7-8-|

Verse x4 [Played on synth but this is what it is on bass]
|----------------------------------------|
|----------------------------------------|
|-------------------------------3-3--3-3-| x4
|-5-5--5-5--5-5--5-5--3-3--3-3-----------|

Chorus
|----------------|
|----------------|
|----------3-----| x2
|-5--8-7-3---7-8-|

Verse x4
Chorus x4

Bridge
|-----------------------------------|
|-----------------------------------|
|-------------------3-3--3-3--------|
|-8-8--8-8--8-8-8-8----------8-7--7-|

|---------------------|
|---------------------|
|---------------------|
|-8-8--8-8-10-7-7--5/-|

Chorus x4

End
|---------------------|
|---------------------|
|---------------------|
|-8-8--8-8-10-7-7--5/-|
            
Submit corrections

↑ Back to top | Tablatures and chords for acoustic guitar and electric guitar, ukulele, drums are parodies/interpretations of the original songs. You may use it for private study, scholarship, research or language learning purposes only