Home » D » Deathstars »

Deathstars - Blitzkrieg Bass

Artists:  A B C D E F G H I J K L M N O P Q R S T U V W X Y Z # 

Blitzkrieg Bass

(ver. 1) Click to play this song!
Deathstars
Band: Deathstars
Bassplayer: Skinny D.



-No bass on Intro

riff 1

    [post-intro], [blitzkrieg, blitzkrieg,...]
F|--------------------------------------------------------|
C|--------------------------------------------------------|
G|--------------------------------------------------------|
C|--000-0-3-0-3--000-0-1-0-1--000-0-3-0-3--000-0-6-5-6----|


riff 2

      [in your dreams...]
|---------------------------------------------------------------------|
|---------------------------------------------------------------------|
|---------------------------------------------------------------------|
|--000-0-3-0-3--- ---000-0-1-0-1--- ---000-0-3-0-3--- ---000-0-6-5-6--|


riff 3

|-----------------------|
|-----------------------|
|-----------------------|
|--0---0-----0-0-0-000--|


riff 4

       [This is The end...]
|--------------------------------------------------------------------------------------|
|--------------------------------------------------------------------------------------|
|-5--5-5-5--5--5-5-5-5---3--3-3-3--3--3-3-3-3--------------------------------------5---|
|-----------------------------------------------8--8-8-8--8--8-8-8-8----5--8-7--0------|


riff 5

 [2:57],[f**k the world...]   [hahaha]
   |-----------------|          |--------|
   |-----------------|          |--------|
   |-----------------|          |--------|
   |-8-- --10-- --7--|          |--15\1--| <-tremolo 



-no bass on end

________________________________________________________________


Intro
Riff 1 (2x)
Riff 2 (2x)
Riff 1 (2x)
Riff 2 (2x)
Riff 1 (2x)
Riff 3
Riff 4
Riff 2 (2x)
Riff 1 (2x)
Riff 5
Riff 4 (2x)
End
            
Submit corrections

↑ Back to top | Tablatures and chords for acoustic guitar and electric guitar, ukulele, drums are parodies/interpretations of the original songs. You may use it for private study, scholarship, research or language learning purposes only