Home » D » Death Cab For Cutie »

Death Cab For Cutie - Expo '86 Tabs

Artists:  A B C D E F G H I J K L M N O P Q R S T U V W X Y Z # 

Expo '86 Tabs

(ver. 2) Click to play this song!
Death Cab For Cutie
"(1)
ok the other tabs are incomplete and inaccurate this should be pretty cloe, except the
might be messed, also on the second chorus it is 9 and 11 not nine and then four ones

intro

e  ------------|
B  --11--10----|
G  --11--9---9-|
D  --11--7-9-9-|
A  9---------7-|
E  ------------|

Verse

e  -------------------0-|
B  ---------------------|
G  --1-----2------------|
D  -------------2-------|
A  -----4-----------4---|
E  0---------4----------|

Chorus

e  ----------------------------------|
B  ----------------------------------|
G  44444444444444/66/8888888888888888
D  xxxxxxxxxxxxxx/xx/xxxxxxxxxxxxxxxx
A  22222222222222/44/6666666666666666
E  ----------------------------------

second Chorus

e  -----------------------------------------------------------------------|
B  -------------------------------------555555555555/7777-----------------|
G  444444444444/6666/88888888888888/6666xxxxxxxxxxxx/xxxx8888888888888888-|
D  xxxxxxxxxxxx/xxxx/xxxxxxxxxxxxxx/xxxx222222222222/4444xxxxxxxxxxxxxxxx-|
A  222222222222/4444/66666666666666/4444-----------------6666666666666666-|
E  -----------------------------------------------------------------------|

e  ----------------------------------------------------------------------|
B  777777777777777777777777777777/9999-----------------------------------|
G  xxxxxxxxxxxxxxxxxxxxxxxxxxxxxx/xxxx999999999999/1111/8888888888888888-|
D  444444444444444444444444444444/6666xxxxxxxxxxxx/xxxx/xxxxxxxxxxxxxxxx-|
A  -----------------------------------777777777777/9999/6666666666666666-|
E  ----------------------------------------------------------------------|

Bridge

e  -------------------------------------------|
B  --------10101010109----------101010101010--|
G  8--/--9-x-x-x-x-x-x--8--/--9-x-x-x-x-x-x---|
D  x--/--x-7-7-7-7-7-6--x--/--x-7-7-7-7-7-9---|
A  6--/--7--------------6--/--7---------------|
E  -------------------------------------------|


   and it's strange...
e  -------------------------------------------------|
B  -------------------------------------------------|
G  --9---9---9---9-1111111111111111-6-6-6-6-6-6-6-6-|
D  --9---9---9---9-1111111111111111-6-6-6-6-6-6-6-6-|
A  --7---7---7---7-9-9-9-9-9-9-9-9--4-4-4-4-4-4-4-4-|
E  00--00--00--00-----------------------------------|

e  ---------------------------------------------------|
B  ----------------------------------------9--9--9--9-|
G  9-9-9-9-9-9-9-9-1111111113-13-13-13-----9--9--9--9-|
D  x-x-x-x-x-x-x-x-x-x-x-x-x--x--x--x------9--9--9--9-|
A  7-7-7-7-7-7-7-7-9-9-9-9-11-11-11-11-----7--7--7--7-|
E  ---------------------------------------0--0--0--0--|
"            
Submit corrections

↑ Back to top | Tablatures and chords for acoustic guitar and electric guitar, ukulele, drums are parodies/interpretations of the original songs. You may use it for private study, scholarship, research or language learning purposes only