Home » D » Dead Or Alive »

Dead Or Alive - You Spin Me Right Round Tabs

Artists:  A B C D E F G H I J K L M N O P Q R S T U V W X Y Z # 

You Spin Me Right Round Tabs

(ver. 3) Click to play this song!
Dead Or Alive
ntro: e|--------------------------------------------------------------------|
       B|--------------------------------------------------------------------|
       G|--------------------------------------------------------------------| X2
       D|-4-4-4-444-444444-4-4-4-444-4-7-7-9-9-9-999-999999-9-9-9-999-999999-|
       A|-4-4-4-444-444444-4-4-4-444-4-7-7-9-9-9-999-999999-9-9-9-999-999999-|
       E|-2-2-2-222-222222-2-2-2-222-2-5-5-7-7-7-777-777777-7-7-7-777-777777-|

Verse: e|--------------------------------------------------------------------|
       B|--------------------------------------------------------------------|
       G|---------------------------------------------------------------6666-| X2
       D|-4-4-4-444-444444-4-4-4-444-4-7-7-9-9-9-999-999999-9-9-9-999-996666-|
       A|-4-4-4-444-444444-4-4-4-444-4-7-7-9-9-9-999-999999-9-9-9-999-994444-|
       E|-2-2-2-222-222222-2-2-2-222-2-5-5-7-7-7-777-777777-7-7-7-777-77-----|

          If I, if I could get to know your name

          Well if I, could trace your private number, baby

Pre-Chorus: e|-----------------------------------------------------------------|
            B|-----------------------------------------------------------------|
            G|-------------------------------------------------6-6-6-6-6-6-----|
            D|-4-4-4-4-4-4-4-4-7-7-7-7-7-7-7-7-9-9-9-9-9-9-9-9-6-6-6-6-6-6-2-2-|
            A|-4-4-4-4-4-4-4-4-7-7-7-7-7-7-7-7-9-9-9-9-9-9-9-9-4-4-4-4-4-4-2-2-|
            E|-2-2-2-2-2-2-2-2-5-5-5-5-5-5-5-5-7-7-7-7-7-7-7-7-------------0-0-|

               All I know is that to me, you look like you're lots of fun

               Open up your lovin' arms 'cause I want some, want some!

Verse: e|--------------------------------------------------------------------|
       B|--------------------------------------------------------------------|
       G|---------------------------------------------------------------6666-| X2
       D|-4-4-4-444-444444-4-4-4-444-4-7-7-9-9-9-999-999999-9-9-9-999-996666-|
       A|-4-4-4-444-444444-4-4-4-444-4-7-7-9-9-9-999-999999-9-9-9-999-994444-|
       E|-2-2-2-222-222222-2-2-2-222-2-5-5-7-7-7-777-777777-7-7-7-777-77-----|

          I set my sights on you (and no one else will do)

          And I, I've got to have my way now, baby!

Pre-Chorus: e|-----------------------------------------------------------------|
            B|-----------------------------------------------------------------|
            G|-------------------------------------------------6-6-6-6-6-6-----|
            D|-4-4-4-4-4-4-4-4-7-7-7-7-7-7-7-7-9-9-9-9-9-9-9-9-6-6-6-6-6-6-2-2-|
            A|-4-4-4-4-4-4-4-4-7-7-7-7-7-7-7-7-9-9-9-9-9-9-9-9-4-4-4-4-4-4-2-2-|
            E|-2-2-2-2-2-2-2-2-5-5-5-5-5-5-5-5-7-7-7-7-7-7-7-7-------------0-0-|

               All I know is that to me, you look like you're lots of fun

               Open up your lovin' arms...Watch out here I come!

Chorus: e|-----------------------------------------------------------------|
        B|-----------------------------------------------------------------|
        G|-------------------------------------------------4-4-4-4-6-6-6-6-| X2
        D|-4-4-4-4-4-4-4-4-7-7-7-7-2-2-2-2-4-4-4-4-4-4-4-4-4-4-4-4-6-6-6-6-|
        A|-4-4-4-4-4-4-4-4-7-7-7-7-2-2-2-2-4-4-4-4-4-4-4-4-2-2-2-2-4-4-4-4-|
        E|-2-2-2-2-2-2-2-2-5-5-5-5-0-0-0-0-2-2-2-2-2-2-2-2-----------------|

           You spin me right round, baby right round like a record, baby. Right round round round.

           You spin me right round, baby right round like a record, baby. Right round round round.

Pre-Verse: e|-----------------------------------------------------------------|
           B|-----------------------------------------------------------------|
           G|-----------------7-7-7-7-6-6-6-6-4-4-4-4-4-4-4-4-6-6-6-6-6-6-6-6-|
           D|-4-4-4-4-2-2-2-2-7-7-7-7-6-6-6-6-4-4-4-4-4-4-4-4-6-6-6-6-6-6-6-6-|
           A|-4-4-4-4-2-2-2-2-5-5-5-5-4-4-4-4-2-2-2-2-2-2-2-2-4-4-4-4-4-4-4-4-|
           E|-2-2-2-2-0-0-0-0-------------------------------------------------|

              (Round round, round round, round round, round round)

Verse: e|--------------------------------------------------------------------|
       B|--------------------------------------------------------------------|
       G|---------------------------------------------------------------6666-| X2
       D|-4-4-4-444-444444-4-4-4-444-4-7-7-9-9-9-999-999999-9-9-9-999-996666-|
       A|-4-4-4-444-444444-4-4-4-444-4-7-7-9-9-9-999-999999-9-9-9-999-994444-|
       E|-2-2-2-222-222222-2-2-2-222-2-5-5-7-7-7-777-777777-7-7-7-777-77-----|

          I (I), I (I), I got to be your friend now, baby.

          And I (I-I-I) would like to move in just a little bit closer (little bit closer)

Pre-Chorus: e|-----------------------------------------------------------------|
            B|-----------------------------------------------------------------|
            G|-------------------------------------------------6-6-6-6-6-6-----|
            D|-4-4-4-4-4-4-4-4-7-7-7-7-7-7-7-7-9-9-9-9-9-9-9-9-6-6-6-6-6-6-2-2-|
            A|-4-4-4-4-4-4-4-4-7-7-7-7-7-7-7-7-9-9-9-9-9-9-9-9-4-4-4-4-4-4-2-2-|
            E|-2-2-2-2-2-2-2-2-5-5-5-5-5-5-5-5-7-7-7-7-7-7-7-7-------------0-0-|

               All I know is that to me, you look like you're lots of fun

               Open up your lovin' arms...Watch out here I come!

Chorus: e|-----------------------------------------------------------------|
        B|-----------------------------------------------------------------|
        G|-------------------------------------------------4-4-4-4-6-6-6-6-| X2
        D|-4-4-4-4-4-4-4-4-7-7-7-7-2-2-2-2-4-4-4-4-4-4-4-4-4-4-4-4-6-6-6-6-|
        A|-4-4-4-4-4-4-4-4-7-7-7-7-2-2-2-2-4-4-4-4-4-4-4-4-2-2-2-2-4-4-4-4-|
        E|-2-2-2-2-2-2-2-2-5-5-5-5-0-0-0-0-2-2-2-2-2-2-2-2-----------------|

           You spin me right round, baby right round like a record, baby. Right round round round.

           You spin me right round, baby right round like a record, baby. Right round round round.

Bridge: e|--------------------------------------------------------------------|
        B|--------------------------------------------------------------------|
        G|---------------------------------------------------------------6666-| X2
        D|-4-4-4-444-444444-4-4-4-444-4-7-7-9-9-9-999-999999-9-9-9-999-996666-|
        A|-4-4-4-444-444444-4-4-4-444-4-7-7-9-9-9-999-999999-9-9-9-999-994444-|
        E|-2-2-2-222-222222-2-2-2-222-2-5-5-7-7-7-777-777777-7-7-7-777-77-----|

           I want your looooooooooo-oo-oo-o-oooooooooooooove

           I want your looooooooooo-oo-oo-o-oooooooooooooove

Pre-Chorus: e|-----------------------------------------------------------------|
            B|-----------------------------------------------------------------|
            G|-------------------------------------------------6-6-6-6-6-6-----|
            D|-4-4-4-4-4-4-4-4-7-7-7-7-7-7-7-7-9-9-9-9-9-9-9-9-6-6-6-6-6-6-2-2-|
            A|-4-4-4-4-4-4-4-4-7-7-7-7-7-7-7-7-9-9-9-9-9-9-9-9-4-4-4-4-4-4-2-2-|
            E|-2-2-2-2-2-2-2-2-5-5-5-5-5-5-5-5-7-7-7-7-7-7-7-7-------------0-0-|

               All I know is that to me, you look like you're lots of fun

               Open up your lovin' arms...Watch out here I come!

Solo: e|-2-2-2-5-5-00-7-52227755-0-0-7-52-|
      B|----------------------------------|
      G|----------------------------------| X2
      D|----------------------------------|
      A|----------------------------------|
      E|----------------------------------|

Outro/Chorus: e|-----------------------------------------------------------------|
              B|-----------------------------------------------------------------|
              G|-------------------------------------------------4-4-4-4-6-6-6-6-| X2 (Repeat to Fade)
              D|-4-4-4-4-4-4-4-4-7-7-7-7-2-2-2-2-4-4-4-4-4-4-4-4-4-4-4-4-6-6-6-6-|
              A|-4-4-4-4-4-4-4-4-7-7-7-7-2-2-2-2-4-4-4-4-4-4-4-4-2-2-2-2-4-4-4-4-|
              E|-2-2-2-2-2-2-2-2-5-5-5-5-0-0-0-0-2-2-2-2-2-2-2-2-----------------|

                 You spin me right round, baby right round like a record, baby. Right round round round.

                 You spin me right round, baby right round like a record, baby. Right round round round.            
Submit corrections

↑ Back to top | Tablatures and chords for acoustic guitar and electric guitar, ukulele, drums are parodies/interpretations of the original songs. You may use it for private study, scholarship, research or language learning purposes only