Home » D » Dead By Sunrise »

Dead By Sunrise - Fire Tabs

Artists:  A B C D E F G H I J K L M N O P Q R S T U V W X Y Z # 

Fire Tabs

(ver. 2) Click to play this song!
Dead By Sunrise
-------------------------------------------------------------------------------
-------------------------------------------------------------------------------

Tuning:Dropped D
  Verse Riff:
e|--------------------------------------------------------------------------------|
B|--------------------------------------------------------------------------------|
G|--------------------------------------------------------------------------------|
D|-5-5-5-5-5---5-5-5---5-5-5-5-5--5-5-5---3-3-3-3-3--3-3-3---3-3-3-3-3--3-3-3-----|
A|-3-3-3-3-3---3-3-3---3-3-3-3-3--3-3-3---3-3-3-3-3--3-3-3---3-3-3-3-3--3-3-3-----|
D|----------------------------------------3-3-3-3-3--3-3-3---3-3-3-3-3--3-3-3-----|


  Pre-chorus:
e|------------------------------|
B|------------------------------|
G|-12-12--12-12-12-12/14-14-----|
D|--x--x---x--x--x--x--x--x-----|
A|-10-10--10-10-10-10/12-12-----|
D|------------------------------|
                         ~~

  Chorus:
e|---------------------------------------------------------------------------|
B|---------------------------------------------------------------------------|
G|---------------------------------------------------------------------------|
D|-3-3-3-3-3-3-3-5-0-0-0-0-0-0-0-0--3-3-3-3-3-3-3-2-0-0-0-0-0-0-0-0----------|
A|-3-3-3-3-3-3-3-5-0-0-0-0-0-0-0-0--3-3-3-3-3-3-3-2-0-0-0-0-0-0-0-0----------|
D|-3-3-3-3-3-3-3-5-0-0-0-0-0-0-0-0--3-3-3-3-3-3-3-2-0-0-0-0-0-0-0-0----------|

e|---------------------------------------------------------------------------|
B|---------------------------------------------------------------------------|
G|---------------------------------------------------------------------------|
D|-5-5-5-5-5-5-5-5-7-7-7-7-9-9-9-9--5-5-5-5-5-5-5-5-7-7-7-7-9-9-9-9----------|
A|-3-3-3-3-3-3-3-3-5-5-5-5-7-7-7-7--3-3-3-3-3-3-3-3-5-5-5-5-7-7-7-7----------|
D|---------------------------------------------------------------------------|

 Lead over the chorus:
e|-15-12--15-12--15-12--15-13------------------------------------------------|
B|---------------------------------------------------------------------------|
G|---------------------------------------------------------------------------|
D|---------------------------------------------------------------------------|
A|---------------------------------------------------------------------------|
D|---------------------------------------------------------------------------|

  Pre-verse:
e|------------------------------|
B|------------------------------|
G|------------------------------|
D|-8----------------------------|
A|-8----------------------------|
D|-8----------------------------|

 Verse and chorus again,after them there is

  Bridge(heavy):
e|---------------------------------------------------------------------------|
B|---------------------------------------------------------------------------|
G|---------------------------------------------------------------------------|
D|-5-5--2--5-5-5-5--2--5-5--2---7-7-7-7-5-5-5-5------------------------------|
A|-3-3--2--3-3-3-3--2--3-3--2---7-7-7-7-5-5-5-5------------------------------|
D|------2-----------2-------2---7-7-7-7-5-5-5-5------------------------------|


  Bridge(clean):
e|---------------------------------------------------------------------------|
B|---------------------------------------------------------------------------|
G|---------------------------------------------------------------------------|
D|-5-5-5-5-5-5/9-9--9-9\5-5-5-5-5-5/9-9--9-9---------------------------------|
A|-3-3-3-3-3-3/7-7--7-7\3-3-3-3-3-3/7-7--7-7---------------------------------|
D|---------------------------------------------------------------------------|


e|-----------------------------------------------------------------------------|
B|-----------------------------------------------------------------------------|
G|-12-12-12-12/16-16-16-14-14-14-12/14\12--------------------------------------|
D|--x--x--x--x--x--x--x--x--x--x--x--x--x--------------------------------------|
A|-10-10-10-10/14-14-14-12-12-12-10/12\10--------------------------------------|
D|-----------------------------------------------------------------------------|

  After bridge play slightly shorter chorus,slightly shorter heavy bridge and last 
to audio to get rhythm.

| /  slide up
| \  slide down
| ~  vibrato
===============================================================================
Very beautiful song,isn't it? And i hope my tab is correct.
P.S. BTW,this is my first tab ever,so please rate and comment,it is VERY important,lol.
            
Submit corrections

↑ Back to top | Tablatures and chords for acoustic guitar and electric guitar, ukulele, drums are parodies/interpretations of the original songs. You may use it for private study, scholarship, research or language learning purposes only