Home » D » Dead By Sunrise »

Dead By Sunrise - Let Down Bass

Artists:  A B C D E F G H I J K L M N O P Q R S T U V W X Y Z # 

Let Down Bass

(ver. 1) Click to play this song!
Dead By Sunrise
-----------------------------------------------------------------------------
-----------------------------------------------------------------------------


Tuning:Standard

Verse  (Bass comes in at 00:39)

G|----------------------------------|
D|----------------------------------|
A|-0-0---0--0-----------------------| (x4)
E|---------------0-0---0--0---------|

Chorus (01:04)
G|-----------------------------------------------------------|
D|-----------------------------------------------------------|
A|-0-0-0-23-3---------5-5-5-5---0-0-0-23-3--7-7-7-7/5-5-5-5--| (x2)
E|-------------0-0-0-0---------------------------------------|

Interlude (01:30)(No Bass)

Repeat Verse  (01:37)

Repeat Chorus (02:02)

Repeat Chorus tab throughout the solo and the rest of the song afterward.

Pretty easy bass line, and it's my first tab. Enjoy.

| /  slide up
| \  slide down
| h  hammer-on
| p  pull-off
| ~  vibrato
| +  harmonic
| x  Mute note
===============================================================================
            
Submit corrections

↑ Back to top | Tablatures and chords for acoustic guitar and electric guitar, ukulele, drums are parodies/interpretations of the original songs. You may use it for private study, scholarship, research or language learning purposes only