Home » D » Dead By Sunrise »

Dead By Sunrise - In The Darkness Tabs

Artists:  A B C D E F G H I J K L M N O P Q R S T U V W X Y Z # 

In The Darkness Tabs

(ver. 1) Click to play this song!
Dead By Sunrise

Artist.......Dead By Sunrise
Song.........In The Darkness
Album........Out Of Ashes
Year.........2009
Tuning.......DADGBE
             654321

Intro:
(Strum chords as you think necessary. It's a really cool beat, have fun playing with it) 
E\--------------------/
B\--------------------/
G\---5----------------/
D\---5------6---------/
A\---3------6---------/
D\----------6---------/
  
E\--------------------/
B\--------------------/
G\----------5---------/
D\---6------5---------/
A\---6------3---------/
D\---6----------------/

  Prechorus:
E\------------------------/
B\------------------------/
G\------------------------/
D\---6-------8--10--------/
A\---6-(x12)-8--10-(x12)--/
D\---6-------8--10--------/

  Chorus:
  (Can't quite make out how many times he play's this so just play it as you think necessary)
E\------------------------------/
B\------------------------------/
G\------------------------------/
D\---6---8--10---8--6---8--10---/
A\---6---8--10---8--6---8--10---/
D\---6---8--10---8--6---8--10---/
  ^^Note: 8's are stummed the least.

Pretty easy song from a really good band with one of my favorite front-men of all time.
--Rock on boys!--
            
Submit corrections

↑ Back to top | Tablatures and chords for acoustic guitar and electric guitar, ukulele, drums are parodies/interpretations of the original songs. You may use it for private study, scholarship, research or language learning purposes only