Home » D » David Guetta »

David Guetta - Titanium Ukulele

Artists:  A B C D E F G H I J K L M N O P Q R S T U V W X Y Z # 

Titanium Ukulele

(ver. 2) Click to play this song!
David Guetta
 Rating:
4.4/5 (5 votes)
                CHORDS

      g-C-E-A
Bb6   3-2-3-1

---------------------------------------------------------------------------

INTRO
                     Bbsus4  Bbsus4
  Eb[add9]         Bb      Bb       Cm[add11]
  1 + 2 + 3 + 4 +  1 + 2 + 3 + 4 +  1 + 2 + 3 + 4 +  1 + 2 + 3 + 4 +
A|----------------|----------------|3-------3-------|3-------3-------|
E|----1---3---1---|1-------1-------|----1-------1---|----1-------1---|
C|--3---3---3---3-|----3-------3---|--3---3---3---3-|--3---3---3---3-|
g|0---------------|--3---3---3---3-|0---------------|0-------0-------|

                      Bbsus4  Bbsus4
  Eb[add9]         Bb      Bb       Cm[add11]        
  1 + 2 + 3 + 4 +  1 + 2 + 3 + 4 +  1 + 2 + 3 + 4 +  1 + 2 + 3 + 4 +
A|----------------|----------------|3-------3-------|----------------|
E|----1---3---1---|1-------1-------|----1-------1-4-|--3---1---3-----|
C|--3---3---3---3-|----3-------3---|--3---3---3-----|3---3---3-------|
g|0---------------|--3---3---3---3-|0---------------|----------------|

VERSE
                     Bbsus4  Bbsus4
  Eb[add9]         Bb      Bb       Cm[add11]
  1 + 2 + 3 + 4 +  1 + 2 + 3 + 4 +  1 + 2 + 3 + 4 +  1 + 2 + 3 + 4 +
A|----------------|----------------|3-------3-------|3-------3-------|
E|----1---3---1---|1-------1-------|----1-------1---|----1-------1---|
C|--3---3---3---3-|----3-------3---|--3---3---3---3-|--3---3---3---3-|
g|0---------------|--3---3---3---3-|0---------------|0-------0-------|

                       Gm(addb13)               Cm[addb13]
  Eb[add9]         Gm7     Bm7      Cm[add11]        Cm[add11]
  1 + 2 + 3 + 4 +  1 + 2 + 3 + 4 +  1 + 2 + 3 + 4 +  1 + 2 + 3 + 4 +
A|----------------|----------------|3-------3-------|----------------|
E|----1---3---1---|1-------1-------|----1-------1-4-|--3---1---3-----|
C|--3---3---3---3-|----3-------3---|--3---3---3-----|3---3---3-------|
g|0---------------|--3---3---3---3-|0---------------|----------------|

---------------------------------------------------------------------------

INTRO
| Eb | Bb | Cm | % |
| Eb | Bb | Cm | % |


VERSE
Eb              Bb  
  You shout it out
    Cm
But I can't hear a word you say
Eb             Gm7             Cm
  I'm talking loud not saying much


VERSE
Eb          Bb         Cm
  I'm criticized but all your bullets ricochet
Eb              Gm7            Cm
  You shoot me down but I get up


BRIDGE
Ab                Bb6
  I'm bulletproof nothing to lose
Gm7     Cm       
  Fire away fire away
Ab        Bb6
  Ricochet you take your aim
Gm7     Cm       [ Ab ]
  Fire away fire away


CHORUS
Ab                  Bb
  You shoot me down,  but I won't fall
Gm7      Cm [ Ab ]
  I am titanium
Ab                  Bb
  You shoot me down,  but I won't fall
Gm7      Cm [ Ab ]
  I am titanium


INTERLUDE
| Ab | Bb | Gm7 | Cm | 
| Ab | Bb | Gm7 | Cm |


VERSE (guitar only)
Eb        Bb  
  Cut me down
         Cm
But it's you who'll have further to fall
Eb       Bb               Cm
  Ghost town and haunted love


VERSE
Eb            Bb     Cm
  Raise your voice sticks and stones may break my bones
Eb             Gm7            Cm
  I'm talking loud not saying much


BRIDGE
Ab                Bb6
  I'm bulletproof nothing to lose
Gm7     Cm
  Fire away fire away
Ab        Bb6
  Ricochet you take your aim
Gm7     Cm       [ Ab ]
  Fire away fire away


CHORUS
Ab                  Bb
  You shoot me down,  but I won't fall
Gm7      Cm [ Ab ]
  I am titanium
Ab                  Bb
  You shoot me down,  but I won't fall
Gm7      Cm [ Ab ]
  I am titanium


INTERLUDE
| Ab | Bb | Gm7 | Cm | 
           I am titanium
| Ab | Bb | Gm7 | Cm | 
           I am titanium


MIDDLE 8
Ab           Bb
  Stone-hard   machine gun
Gm7             Cm
  Firing at the ones who run
Ab           Bb                Cm
  Stone-hard   as bulletproof glass


CHORUS
Ab                  Bb
  You shoot me down,  but I won't fall
Gm7      Cm [ Ab ]
  I am titanium
Ab                  Bb
  You shoot me down,  but I won't fall
Gm7      Cm [ Ab ]
  I am titanium


CHORUS
Ab                  Bb
  You shoot me down,  but I won't fall
Gm7      Cm [ Ab ]
  I am titanium
Ab                  Bb
  You shoot me down,  but I won't fall
Gm7      Cm [ Ab ]
  I am titanium

OUTRO
| Ab | Bb | Gm7 | Cm | 
| Ab | Bb | Gm7 | Cm |  Cm
           I am titanium
            
Submit corrections

↑ Back to top | Tablatures and chords for acoustic guitar and electric guitar, ukulele, drums are parodies/interpretations of the original songs. You may use it for private study, scholarship, research or language learning purposes only