» » »

David Guetta - Titanium Tabs

Artists:  A B C D E F G H I J K L M N O P Q R S T U V W X Y Z # 

Titanium Tabs

(ver. 13) Click to play this song!
David Guetta
 Rating:
4.4/5 (7 votes)

 Titanium lessons Tabs too difficult? Try these video lessons and learn fast
 
                [Intro]
e|-----------------0----------------------------------------------0----------|
B|----------3------------3-----------1-----3----1-----------3-----------3----|
G|---------------------------------------------------------------------------|
D|-------2------------------------0----------------------0-------------------|
A|----3--------3------3--------2--------2----2---------0-------0-----0-------|
E|---------------------------------------------------------------------------|

e|-----1----------------0----------------------------------------------------|
B|---------------3---------1-------------------------------------------------|
G|---------------------------------------------------------------------------|
D|---------------------------------------------------------------------------|
A|-------0---0------0--------------------------------------------------------|
E|---------------------------------------------------------------------------|

[Verse]
e|-----------------0----------------------------------------------0----------|
B|----------3------------3-----------1-----3----1-----------3---------3------|
G|---------------------------------------------------------------------------|
D|-------2------------------------0----------------------0-------------------|
A|----3--------3------3--------2--------2----2---------0-------0-------------|
E|---------------------------------------------------------------------------|
You shout it out,                            But I can't hear a word you say

e|--------------0------------------------------------------------------------|
B|----------3-----3----------------------------------------------------------|
G|---------------------------------------------------------------------------|
D|-------0-------------------------------------------------------------------|
A|----0-------0--------------------------------------------------------------|
E|---------------------------------------------------------------------------|

e|-----------------0----------------------------------------------0----------|
B|----------3------------3-----------1-----3----1-----------3-----------3----|
G|---------------------------------------------------------------------------|
D|-------2------------------------0----------------------0-------------------|
A|----3--------3------3--------2--------2----2---------0-------0-----0-------|
E|---------------------------------------------------------------------------|
I'm talking loud,                   not saying much  

e|-----1----------------0----------------------------------------------------|
B|---------------3---------1-------------------------------------------------|
G|---------------------------------------------------------------------------|
D|---------------------------------------------------------------------------|
A|-------0---0------0--------------------------------------------------------|
E|---------------------------------------------------------------------------|

e|-----------------0----------------------------------------------0----------|
B|----------3------------3-----------1-----3----1-----------3---------3------|
G|---------------------------------------------------------------------------|
D|-------2------------------------0----------------------0-------------------|
A|----3--------3------3--------2--------2----2---------0-------0-------------|
E|---------------------------------------------------------------------------|
I  'm criticized                      but all your bullets ricochet

e|--------------0------------------------------------------------------------|
B|----------3-----3----------------------------------------------------------|
G|---------------------------------------------------------------------------|
D|-------0-------------------------------------------------------------------|
A|----0-------0--------------------------------------------------------------|
E|---------------------------------------------------------------------------|

e|-----------------0----------------------------------------------0----------|
B|----------3------------3-----------1-----3----1-----------3-----------3----|
G|---------------------------------------------------------------------------|
D|-------2------------------------0----------------------0-------------------|
A|----3--------3------3--------2--------2----2---------0-------0-----0-------|
E|---------------------------------------------------------------------------|
    Shoot me down,                                        but I get up

e|-----1----------------0----------------------------------------------------|
B|---------------3---------1-------------------------------------------------|
G|---------------------------------------------------------------------------|
D|---------------------------------------------------------------------------|
A|-------0---0------0--------------------------------------------------------|
E|---------------------------------------------------------------------------|

[Chorus]
 F                   G
I'm bulletproof, nothing to lose
Am               E
Fire away, fire away
F                       G
Ricochet, you take your aim
Am                E
Fire away, fire away
F                   G        
You shoot me down but I won't fall
Am         
I am titanium
F                              G
You shoot me down but I won't fall
Am            
I am titanium

[F G E]

[Verse 2]
e|-----------------0----------------------------------------------0----------|
B|----------3------------3-----------1-----3----1-----------3---------3------|
G|---------------------------------------------------------------------------|
D|-------2------------------------0----------------------0-------------------|
A|----3--------3------3--------2--------2----2---------0-------0-------------|
E|---------------------------------------------------------------------------|
Cut me down                       But it's you who'll have further to fall

e|--------------0------------------------------------------------------------|
B|----------3-----3----------------------------------------------------------|
G|---------------------------------------------------------------------------|
D|-------0-------------------------------------------------------------------|
A|----0-------0--------------------------------------------------------------|
E|---------------------------------------------------------------------------|

e|-----------------0----------------------------------------------0----------|
B|----------3------------3-----------1-----3----1-----------3-----------3----|
G|---------------------------------------------------------------------------|
D|-------2------------------------0----------------------0-------------------|
A|----3--------3------3--------2--------2----2---------0-------0-----0-------|
E|---------------------------------------------------------------------------|
 Ghost town                                     and haunted love
e|-----1----------------0----------------------------------------------------|
B|---------------3---------1-------------------------------------------------|
G|---------------------------------------------------------------------------|
D|---------------------------------------------------------------------------|
A|-------0---0------0--------------------------------------------------------|
E|---------------------------------------------------------------------------|

e|-----------------0----------------------------------------------0----------|
B|----------3------------3-----------1-----3----1-----------3---------3------|
G|---------------------------------------------------------------------------|
D|-------2------------------------0----------------------0-------------------|
A|----3--------3------3--------2--------2----2---------0-------0-------------|
E|---------------------------------------------------------------------------|
Raise your voice,                        sticks and stones may break my bones
e|--------------0------------------------------------------------------------|
B|----------3-----3----------------------------------------------------------|
G|---------------------------------------------------------------------------|
D|-------0-------------------------------------------------------------------|
A|----0-------0--------------------------------------------------------------|
E|---------------------------------------------------------------------------|

e|-----------------0----------------------------------------------0----------|
B|----------3------------3-----------1-----3----1-----------3-----------3----|
G|---------------------------------------------------------------------------|
D|-------2------------------------0----------------------0-------------------|
A|----3--------3------3--------2--------2----2---------0-------0-----0-------|
E|---------------------------------------------------------------------------|
  I'm talking loud               not saying much

e|-----1----------------0----------------------------------------------------|
B|---------------3---------1-------------------------------------------------|
G|---------------------------------------------------------------------------|
D|---------------------------------------------------------------------------|
A|-------0---0------0--------------------------------------------------------|
E|---------------------------------------------------------------------------|

[Chorus 2]
 F                   G
I'm bulletproof, nothing to lose
Am               E
Fire away, fire away
F                       G
Ricochet, you take your aim
Am                E
Fire away, fire away
F                   G        
You shoot me down but I won't fall
Am         
I am titanium
F                              G
You shoot me down but I won't fall
Am            
I am titanium
F G E
Am
I am titanium
F G E 
Am
I am titanium

[Bridge]
e|---------------------------------------------------------------------------|
B|--------------------------------------0------------------------------------|
G|-----2--------------------------------0------------------------------------|
D|---- 3--------------------------------0------------------------------------|
A|---------------------------------------------------------------------------|
E|-----1--------------------------------3------------------------------------|
Stone-heart,                    machine gun

e|---------------------------------------------------------------------------|
B|-------1----------------------------0--------------------------------------|
G|-------2----------------------------1--------------------------------------|
D|-------2----------------------------2--------------------------------------|
A|-------0----------------------------2--------------------------------------|
E|---------------------------------------------------------------------------|
Firing at                     the ones who run

e|--------------------------------------0-0-0-0-0-0-0-0---0-0-0-0-0-0-0-0----|
B|---------------------0----------------1-1-1-1-1-1-1-1---0-0-0-0-0-0-0-0----|
G|-----2---------------0----------------2-2-2-2-2-2-2-2---1-1-1-1-1-1-1-1----|
D|---- 3---------------0----------------2-2-2-2-2-2-2-2---2-2-2-2-2-2-2-2----|
A|--------------------------------------0-0-0-0-0-0-0-0---2-2-2-2-2-2-2-2----|
E|-----1---------------3----------------0-0-0-0-0-0-0-0---0-0-0-0-0-0-0-0----|
Stone heart loves  bulletproof     glass

F                             G
You shoot me down but I won't fall
Am         E
I am titanium
F                             G
You shoot me down but I won't fall
Am         E
I am titanium
F                             G
You shoot me down but I won't fall
Am         E
I am titanium
F                             G
You shoot me down but I won't fall
Am         
I am titanium
F G E
Am
I am titanium
F
            
Submit corrections


        Titanium lessons Hard to play? Try these video lessons and learn fast Titanium lessons
        
↑ Back to top | Tablatures and chords for acoustic guitar and electric guitar, ukulele, drums are parodies/interpretations of the original songs. You may use it for private study, scholarship, research or language learning purposes only