» » »

David Guetta - Titanium Tabs

Artists:  A B C D E F G H I J K L M N O P Q R S T U V W X Y Z # 

Titanium Tabs

(ver. 12) Click to play this song!
David Guetta
 Rating:
4.2/5 (30 votes)

 Titanium lessons Tabs too difficult? Try these video lessons and learn fast
 
                Let ring throughout

[Intro]

E|-------------0-----------|-------------------------|
B|-------3-----------3-----|-3-----1-----3-----1-----|
G|-------0-----------0-----|-0-----0-----0-----0-----|
D|----2--------------------|-------------------------|
A|-3--------3-----3-----3--|-------------------------|
F|-------------------------|-2--2-----2-----2-----2--|
   1  +  2  +  3  +  4  +    1  +  2  +  3  +  4  +

E|-------------0-----------|-------------0-----------|
B|-------3-----------3-----|-------3-----------3-----|
G|-------2-----------2-----|-------2-----------2-----|
D|----2--------------------|----2--------------------|
A|-0--------0-----0-----0--|-0--------0-----0-----0--|
F|-------------------------|-------------------------|
   1  +  2  +  3  +  4  +    1  +  2  +  3  +  4  +

E|-------------0-----------|-------------------------|
B|-------3-----------3-----|-3-----1-----3-----1-----|
G|-------0-----------0-----|-0-----0-----0-----0-----|
D|----2--------------------|-------------------------|
A|-3--------3-----3-----3--|-------------------------|
F|-------------------------|-2--2-----2-----2-----2--|
   1  +  2  +  3  +  4  +    1  +  2  +  3  +  4  +

E|-------------0--------1--|(1)p0-----------0--------|
B|-------3-----------3-----|----------3-----------1--|
G|-------2-----------2-----|----------2--------------|
D|----2--------------------|-------------------------|
A|-0--------0-----0--------|-0-----0-----0-----0-----|
F|-------------------------|-------------------------|
   1  +  2  +  3  +  4  +    1  +  2  +  3  +  4  +


[Verse 1]

E|-------------------------|-------------------------|
B|-------------------1-p0--|----------------------3--|
G|-------------0-h2--------|----------------------2--|
D|-------2-----------------|-------0-----0--------2--|
A|-3--------3--------------|-------------0--------0--|
F|-------------------------|-2--------2--------2-----|
   1  +  2  +  3  +  4  +    1  +  2  +  3  +  4  +

E|-------------------------|--------------------------|
B|(3)-1-(1)p0-----0-----0--|----------0g1-------------|
G|(2)----------------------|-------2------------2-p0--|
D|(2)----------------------|----3---------------------|
A|(0)----0-----------0-----|--------------------------|
F|-------------------------|-0---------------0--------|
   1  +  2  +  3  +  4  +    1  +  2    + 3  +  4  +

E|-------------------------|-------------------------|
B|-------------------1-p0--|-------------------------|
G|-------------0-h2--------|-------------0-h2--------|
D|-------2-----------------|-------0-----0-----2-----|
A|-3--------3--------------|-------------------------|
F|-------------------------|-2--------2--------------|
   1  +  2  +  3  +  4  +    1  +  2  +  3  +  4  +

E|-------------------------|-------------------------|
B|-------------1--0-----1--|-------------1--0-----1--|
G|-------------------------|-------------------------|
D|-------2-----------------|-------3-----------------|
A|-0--------0--------------|-------------------------|
F|-------------------------|-0--------0--------------|
   1  +  2  +  3  +  4  +    1  +  2  +  3  +  4  +

E|-------------------------|-------------------------|
B|-------------------1-p0--|----------------------3--|
G|-------------0-h2--------|-------------0--------2--|
D|-------2-----------------|-------0-----0--------2--|
A|-3--------3--------------|----------------------0--|
F|-------------------------|-2--------2--------2-----|
   1  +  2  +  3  +  4  +    1  +  2  +  3  +  4  +

E|-------------------------|--------------------------|
B|(3)-1-(1)p0-----0-----0--|----------0g1-------------|
G|(2)----------------------|-------2------------2-p0--|
D|(2)----------------------|----3---------------------|
A|(0)----0-----------0-----|--------------------------|
F|-------------------------|-0---------------0--------|
   1  +  2  +  3  +  4  +    1  +  2    + 3  +  4  +

E|-------------------------|-------------------------|
B|-------------------1-p0--|-------------------------|
G|-------------0-h2--------|-------------0-h2--------|
D|-------2-----------------|-------0-----0-----2-----|
A|-3--------3--------------|-------------------------|
F|-------------------------|-2--------2--------------|
   1  +  2  +  3  +  4  +    1  +  2  +  3  +  4  +

E|-------------0--------1--|(1)p0-----------0--------|
B|-------3-----------3-----|----------3-----------1--|
G|-------2-----------2-----|----------2--------------|
D|----2--------------------|-------------------------|
A|-0--------0-----0--------|-0-----0-----0-----0-----|
F|-------------------------|-------------------------|
   1  +  2  +  3  +  4  +    1  +  2  +  3  +  4  +


[Pre-Chorus]

E|-------------1--1-p0-----|----------------0--0-----|
B|-------------------------|-------------0-----------|
G|-------------2--2--------|-------------0-----------|
D|-------3-----------------|-------0-----------------|
A|-------------------------|-------------------------|
F|-0--------0-----------0--|-2--------2-----------2--|
   1  +  2  +  3  +  4  +    1  +  2  +  3  +  4  +

E|-------------------------|-0-----------------------|
B|-------------0-----0-----|-1-----------0-----1-----|
G|-------------0-----0-----|-2--------------------2--|
D|-------2-----------------|-2--------2--------------|
A|-2--------2-----2-----2--|-0-----0-----------------|
F|-------------------------|-------------------------|
   1  +  2  +  3  +  4  +    1  +  2  +  3  +  4  +


[Chorus]

E|-------------5--5-p3-----|-------------0-h3--3-----|
B|-------------------------|-------------------------|
G|-------------2--2--------|-------------0-----------|
D|-------3-----------------|-------0-----------------|
A|-------------------------|-------------------------|
F|-0--------0-----------0--|-2--------2-----------2--|
   1  +  2  +  3  +  4  +    1  +  2  +  3  +  4  +

E|-------------0-----0-----|/8-----------7-------5--|
B|-------------------------|------------------------|
G|-------------0-----0-----|----------0-------------|
D|-------2-----------------|------------------------|
A|-2--------2-----------2--|-0-----0----------0-----|
F|----------------2--------|------------------------|
   1  +  2  +  3  +  4  +    1  +  2  +  3  +  4  +

E|-------------5--5-p3-----|-------------0-h3--3-----|
B|-------------------------|-------------------------|
G|-------------2--2--------|-------------0-----------|
D|-------3-----------------|-------0-----------------|
A|-------------------------|-------------------------|
F|-0--------0-----------0--|-2--------2-----------2--|
   1  +  2  +  3  +  4  +    1  +  2  +  3  +  4  +

E|-------------0-----0-----|/8-----------7--8-7\5-\3--|
B|-------------------------|--------------------------|
G|-------------0-----0-----|----------0---------------|
D|-------2-----------------|--------------------------|
A|-2--------2-----2-----2--|-0-----0------------------|
F|-------------------------|--------------------------|
   1  +  2  +  3  +  4  +    1  +  2  +  3  +   4  +

E|/5-----------------------|
B|-------------------------|
G|-------------------------|
D|-------------------------|
A|-0-----------------------|
F|-------------------------|
   1  +  2  +  3  +  4  +


[Verse 2]

E|-------------------------|-------------------------|
B|-------------------1-p0--|----------------------3--|
G|-------------0-h2--------|----------------------2--|
D|-------2-----------------|-------0-----0--------2--|
A|-3--------3--------------|-------------0--------0--|
F|-------------------------|-2--------2--------2-----|
   1  +  2  +  3  +  4  +    1  +  2  +  3  +  4  +

E|-------------------------|--------------------------|
B|(3)-1-(1)p0-----0-----0--|----------0g1-------------|
G|(2)----------------------|-------2------------2-p0--|
D|(2)----------------------|----3---------------------|
A|(0)----0-----------0-----|--------------------------|
F|-------------------------|-0---------------0--------|
   1  +  2  +  3  +  4  +    1  +  2    + 3  +  4  +

E|-------------------------|-------------------------|
B|-------------------1-p0--|-------------------------|
G|-------------0-h2--------|-------------0-h2--------|
D|-------2-----------------|-------0-----0-----2-----|
A|-3--------3--------------|-------------------------|
F|-------------------------|-2--------2--------------|
   1  +  2  +  3  +  4  +    1  +  2  +  3  +  4  +

E|-------------------------|-------------------------|
B|-------------1--0-----1--|-------------1-h3--1-p0--|
G|-------------------------|-------------------------|
D|-------2-----------------|-------3-----------------|
A|-0--------0--------------|-------------------------|
F|-------------------------|-0--------0--------------|
   1  +  2  +  3  +  4  +    1  +  2  +  3  +  4  +

E|-------------------------|-------------------------|
B|-1-----------------1-p0--|----------------------3--|
G|-------------0-h2--------|-------------0--------2--|
D|----------2--------------|-------0-----0--------2--|
A|-3-----3-----------------|----------------------0--|
F|-------------------------|-2--------2--------2-----|
   1  +  2  +  3  +  4  +    1  +  2  +  3  +  4  +

E|-------------------------|--------------------------|
B|(3)-1-(1)p0-----0-----0--|----------0g1-------------|
G|(2)----------------------|-------2------------2-p0--|
D|(2)----------------------|----3---------------------|
A|(0)----0-----------0-----|--------------------------|
F|-------------------------|-0---------------0--------|
   1  +  2  +  3  +  4  +    1  +  2    + 3  +  4  +

E|-------------------------|-------------------------|
B|-------------------1-p0--|-------------------------|
G|-------------0-h2--------|-------------0-h2--------|
D|-------2-----------------|-------0-----0-----2-----|
A|-3--------3--------------|-------------------------|
F|-------------------------|-2--------2--------------|
   1  +  2  +  3  +  4  +    1  +  2  +  3  +  4  +

E|-------------0--------1--|(1)p0-----------0--------|
B|-------3-----------3-----|----------3-----------1--|
G|-------2-----------2-----|----------2--------------|
D|----2--------------------|-------------------------|
A|-0--------0-----0--------|-0-----0-----0-----0-----|
F|-------------------------|-------------------------|
   1  +  2  +  3  +  4  +    1  +  2  +  3  +  4  +


[Pre-Chorus]

E|-------------1--1-p0-----|----------------0--0-----|
B|-------------------------|-------------0-----------|
G|-------------2--2--------|-------------0-----------|
D|-------3-----------------|-------0-----------------|
A|-------------------------|-------------------------|
F|-0--------0-----------0--|-2--------2-----------2--|
   1  +  2  +  3  +  4  +    1  +  2  +  3  +  4  +

E|-------------------------|-0-----------------------|
B|-------------0-----0-----|-1-----------0-----1-----|
G|-------------0-----0-----|-2--------------------2--|
D|-------2-----------------|-2--------2--------------|
A|-2--------2-----2-----2--|-0-----0-----------------|
F|-------------------------|-------------------------|
   1  +  2  +  3  +  4  +    1  +  2  +  3  +  4  +


[Chorus]

E|-------------5--5-p3-----|-------------0-h3--3-----|
B|-------------------------|-------------------------|
G|-------------2--2--------|-------------0-----------|
D|-------3-----------------|-------0-----------------|
A|-------------------------|-------------------------|
F|-0--------0-----------0--|-2--------2-----------2--|
   1  +  2  +  3  +  4  +    1  +  2  +  3  +  4  +

E|-------------0-----0-----|/8-----------7-------5--|
B|-------------------------|------------------------|
G|-------------0-----0-----|----------0-------------|
D|-------2-----------------|------------------------|
A|-2--------2-----------2--|-0-----0----------0-----|
F|----------------2--------|------------------------|
   1  +  2  +  3  +  4  +    1  +  2  +  3  +  4  +

E|-------------5--5-p3-----|-------------0-h3--3-----|
B|-------------------------|-------------------------|
G|-------------2--2--------|-------------0-----------|
D|-------3-----------------|-------0-----------------|
A|-------------------------|-------------------------|
F|-0--------0-----------0--|-2--------2-----------2--|
   1  +  2  +  3  +  4  +    1  +  2  +  3  +  4  +

E|-------------0-----0-----|/8-----------7--8-7\5-\3--|
B|-------------------------|--------------------------|
G|-------------0-----0-----|----------0---------------|
D|-------2-----------------|--------------------------|
A|-2--------2-----2-----2--|-0-----0------------------|
F|-------------------------|--------------------------|
   1  +  2  +  3  +  4  +    1  +  2  +  3  +   4  +


[Instrumental]

E|/5-----------3----p0-----|-------------3----p0-----|
B|-------------------------|-------------------------|
G|-------------0-----------|-------------0-----------|
D|----------3--------------|-------0-----------------|
A|-------------------------|-------------------------|
F|-0-----0--------------0--|-2--------2-----------2--|
   1  +  2  +  3  +  4  +    1  +  2  +  3  +  4  +

E|-------------3--3-p0-----|-------1----p0-----------|
B|----------------------3--|-3-----------------------|
G|-------------0--0--------|-2-----------------------|
D|-------2-----------------|-2--------------------2--|
A|-2--------2--------------|-0--0--------------0-----|
F|-------------------------|-------------------------|
   1  +  2  +  3  +  4  +    1  +  2  +  3  +  4  +

E|-------------3----p0-----|-------------3--3-p0-----|
B|-------------------------|-------------------------|
G|-------------0-----------|-------------0--0--------|
D|-------3-----------------|-------0-----------------|
A|-------------------------|-------------------------|
F|-0--------0-----------0--|-2--------2-----------2--|
   1  +  2  +  3  +  4  +    1  +  2  +  3  +  4  +

E|/5-----------5-----------|-5-----------5-----5-p3--|
B|-------------------------|-------------------------|
G|-------2-----------2-----|-------2-----------------|
D|-------------------------|-------------------------|
A|-0--0-----0-----0-----0--|----0-----0-----0--------|
F|-------------------------|-------------------------|
   1  +  2  +  3  +  4  +    1  +  2  +  3  +  4  +


[Chorus]

E|-------------5--5-p3-----|-------------0-h3--3-----|
B|-------------------------|-------------------------|
G|-------------2--2--------|-------------0-----------|
D|-------3-----------------|-------0-----------------|
A|-------------------------|-------------------------|
F|-0--------0-----------0--|-2--------2-----------2--|
   1  +  2  +  3  +  4  +    1  +  2  +  3  +  4  +

E|-------------0-----0-----|/8-----------7--------5--|
B|-------------------------|-------------------------|
G|-------------0-----0-----|----------0--------------|
D|-------2-----------------|-------------------------|
A|-2--------2-----2-----2--|-0-----0-----------0-----|
F|-------------------------|-------------------------|
   1  +  2  +  3  +  4  +    1  +  2  +  3  +  4  +

E|-------------5--5-p3-----|-------------0----3---5--|
B|-------------------------|-------------------------|
G|-------------2--2--------|-------------0----3---0--|
D|-------3-----------------|-------0-----------------|
A|-------------------------|-------------------------|
F|-0--------0-----------0--|-2--------2--------------|
   1  +  2  +  3  +  4  +    1  +  2  +  3  +  4  +

E|-3-----------0-----0-----|/8-----------7--8-7\5-\3--|
B|-------------------------|--------------------------|
G|-------------0-----0-----|----------0---------------|
D|-------2-----------------|--------------------------|
A|-2--------2-----2-----2--|-0-----0------------------|
F|-------------------------|--------------------------|
   1  +  2  +  3  +  4  +    1  +  2  +  3  +   4  +


[Outro]

E|/5-----------1--1-p0-----|----------------0--0-----|
B|-------------------------|-------------0-----------|
G|-------------2--2--------|-------------0-----------|
D|-------------------------|-------0-----------------|
A|-------------------------|-------------------------|
F|-0--------0-----------0--|-2--------2-----------2--|
   1  +  2  +  3  +  4  +    1  +  2  +  3  +  4  +

E|-------------------------|-0-----------------------|
B|-------------0-----0-----|-1-----------0-----1-----|
G|-------------0-----0-----|-2--------------------2--|
D|-------2-----------------|-2-----------------------|
A|-2--------2-----2-----2--|-0--------0--------------|
F|-------------------------|-------------------------|
   1  +  2  +  3  +  4  +    1  +  2  +  3  +  4  +

E|-------------1--1-p0-----|----------------0--0-----|
B|-------------------------|-------------0-----------|
G|-------------2--2--------|-------------0-----------|
D|-------3-----------------|-------0-----------------|
A|-------------------------|-------------------------|
F|-0--------0-----------0--|-2--------2-----------2--|
   1  +  2  +  3  +  4  +    1  +  2  +  3  +  4  +

E|-------------------------|-0------------------------|
B|-------------0-----0-----|-1-----------0--1p0-------|
G|-------------0-----0-----|-2------------------2-p0--|
D|-------2-----------------|-2--------2---------------|
A|-2--------2-----2-----2--|-0-----0------------------|
F|-------------------------|--------------------------|
   1  +  2  +  3  +  4  +    1  +  2  +  3  +   4  +

E|-------------------------|
B|-------------------------|
G|-0-h2--------------------|
D|-3-----------------------|
A|-------------------------|
F|-0-----------------------|
   1  +  2  +  3  +  4  +            
Submit corrections


        Titanium lessons Hard to play? Try these video lessons and learn fast Titanium lessons
        
↑ Back to top | Tablatures and chords for acoustic guitar and electric guitar, ukulele, drums are parodies/interpretations of the original songs. You may use it for private study, scholarship, research or language learning purposes only