» » »

David Gilmour - Take A Breath Tabs

Artists:  A B C D E F G H I J K L M N O P Q R S T U V W X Y Z # 

Take A Breath Tabs

(ver. 1) Click to play this song!
David Gilmour
 Rating:
4/5 (5 votes)

 Take A Breath lessons Tabs too difficult? Try these video lessons and learn fast
 
                        Phil Manzanera
        Guy Pratt
        Ged Lynch
        Leszek Mozdzer
        (Jon Carin when live)


quite like his album, personally, and there is some great parts, even if you dont like 
whole package.

Played on David's black strat from the 70's, now with maple ('57) neck and
re-wound Seymor Duncan pickups.  You can see the lines in the paint on the
back where, perhpaps, the Kahler tremolo system was installed at some point.

Please note, this isnt really accurate tab, its just a guide. Palm mutes,
Let ring, and other things may not be noted in the TAB. Listen for timing.

Standard Tuning: EADGBe


Gtr1. w.Tremolo, Delay and Distortion.
--0--------------0--------------0x--3-------------------------------------|
--0--------------0--------------0x--3--------------3--------------3x------|
--1--------------1--------------0x--3--------------3--------------3x------|
--2---------------------------------x--------------x--------------x-------|
--2---------------------------------5-------------------------------------|
--0--0-0-0-0-0-0-0--0-0-0-0-0-0--------0-0-0-0-0-0----0-0-0-0-0-0-----0-0-|


--0--------------0-----------------0----0x--------------------------------|
--0--------------0-----------------0----0x-----3------------3x------------|
--1--------------1------2(3)2p0----1----0x-----3------------3x------------|
--2-----------------------------2--------------x------------x-------------|
--2--------------------------------------------5--------------------------|
--0--0-0-0-0-0-0-0--0-0-0-0-0-0-------0----0-0----0-0-0-0-0-0-0-----0-0---|

Thats the kinda intro bit, its just playing about, with the odd fill around
Em pentatonic, and the Emaj chord, and switching to that wierd 'D-ish' chord.

Bridge 1 (Part 2 is just variations on the order of those chords)
--------------------------------------------------------------------------|
--3-3-3-3--3-3-3-3--------------------------------------------------------|
--3-3-3-3--2-2-2-2--------------------------------------------------------|
--2-2-2-2--2-2-2-2--------------------------------------------------------|
--------------------------------------------------------------------------|
--------------------------------------------------------------------------|

Slide Solo.
Gtr2. w.Delay and Distortion.
--------------------------------------------------------------------------|
-------------------------------------------------------17--19--20--22/23--|
-9--11--12--14--16--17--16--14----12--14--16--17--19----------------------|
--------------------------------------------------------------------------|
--------------------------------------------------------------------------|
--------------------------------------------------------------------------|


--------------------------------------------------------------------------|
-22--23--20----17--17/19--17---17-----------------------------------------|
--------------------------------------------------------------------------|
--------------------------------------------------------------------------|
--------------------------------------------------------------------------|
--------------------------------------------------------------------------|

Outro Guitar Solo.
Gtr1. w.Delay and Distortion.
---------15---------------------------------------------------------------|
--15(17)-----(17)15-------------------------------------------------------|
---------------------------12-14-14(16)14--13--------------------13-------|
---------------------12/14---------------------/12-12-12---12-12----12----|
--------------------------------------------------------------------------|
--------------------------------------------------------------------------|


---------------------------------------------------------------------------|
---------------------------------------------------------------------------|
--------------------------------------------------------15---15-17-17b(19--|
--12-12--14(15)-14(15)14--14~~-14~~--10--10/17-17--x/17--------------------|
---------------------------------------------------------------------------|
---------------------------------------------------------------------------|


--------------------------------------------------------------------------|
--------------------------------------------------------------------------|
-(19)-15---15-15-17b(19)-//-21-21--21b(22)r21p19h21-21~~------------------|
--------------------------------------------------------------------------|
--------------------------------------------------------------------------|
--------------------------------------------------------------------------|


---------19----------19b(20)r19-19-----19b(20)r19-18----------------------|
--17-17-------17-17-----------------17----------------18p17-18~-----------|
--------------------------------------------------------------------------|
--------------------------------------------------------------------------|
--------------------------------------------------------------------------|
--------------------------------------------------------------------------|


--------------------------------------------------------------------------|
-17-18-17\15--15-15-------------------------------------------------------|
---------------------13-13-13\7-7-7-7-/9-9b(10)r9p7h9-----7-9-7-----------|
-------------------------------------------------------/9-------9--8~~----|
--------------------------------------------------------------------------|
--------------------------------------------------------------------------|


--------------------------------------------------------------------------|
--------------------------------------------------------------------------|
--------------------------------------------------------------------------|
--10p9p8\7-8---8/10--10/12--12/14-14-14b(15)r14p12h14---------------------|
--------------------------------------------------------------------------|
--------------------------------------------------------------------------|


-----10----12--------------------------------------------------------------|
-----------------------------------------------------17-17-21--17----------|
-/10----/12-----------?? too lazy to tab this bit--------------------------|
---------------------------------------------------------------------------|
---------------------------------------------------------------------------|
---------------------------------------------------------------------------|
            
Submit corrections


        Take A Breath lessons Hard to play? Try these video lessons and learn fast Take A Breath lessons
        
↑ Back to top | Tablatures and chords for acoustic guitar and electric guitar, ukulele, drums are parodies/interpretations of the original songs. You may use it for private study, scholarship, research or language learning purposes only