» » »

David Gilmour - Shine On You Crazy Diamond Tabs

Artists:  A B C D E F G H I J K L M N O P Q R S T U V W X Y Z # 

Shine On You Crazy Diamond Tabs

(ver. 2) Click to play this song!
David Gilmour
 Rating:
2.8/5 (21 vote)

 Shine On You Crazy Diamond lessons Tabs too difficult? Try these video lessons and learn fast
 
                
-0----0---0--0---0----------------0-|-----------------------------------------
-0----0------3/5-5----------------0-|-----------------------------------------
-0----0--------------2b3r-p0------0-|-----------------------------------------
-2----2----------------------2----2-|-----------------------------------------
-2----2---------------------------2-|-----------------------------------------
-0----0-------------------------0-0-|-----------------------------------------


---0---------------7--10-p0-7-p0-10-p0-9-p0-7-|-------------------------------
---0-----x12x---------------------------------|-------------------------------
---0-----x12x---------------------------------|-------------------------------
---2-----x12x---------------------------------|-------------------------------
---2------------------------------------------|-------------------------------
-0-0------------------------------------------|-------------------------------
not really sure

-----------------------------------------0--0------0--------x12x--|-----------
-----------------------------------------0--0--3b-----------x12x--|-----------
---0-h2-2br-p0----0----------------------0--0---------------x12x--|-----------
-2-------------2-----2-------------------2------------------------|-----------
-------------------------2-h3-p2---------2------------------------|-----------
---------------------------------3br--0--0-------------0----------|-----------
not really sure

----------------------------------------------------------------0--0--0---0-|-
----------------------------------------------------------------0--0---3b---|-
-------------------------------7-7------------------------------0--0--------|-
---------5-------5-7br-p5---/9-----7br-p5------------0----------2--2--------|-
----5-7----7-5-7---------h7---------------h7-7----1b---2----0---2--2--------|-
-/7-------------------------------------------------------2b--0-0--0--------|-


-3-|-3-3-3-||----3--------------------------------------------------|-3-3-3||-
-3-|-3-3-3-||-6b---6-p3---------------------------------------------|-3-3-3||-
-3-|-3-3-3-||-----------h5-5---3-5-5br-p3----5---3---------------3--|-3-3-3||-
-5-|-5-5-5-||----------------5------------h5---5----5--5-5-p3-h5---5|-5-5-5||-
-5-|-5-5-5-||-------------------------------------------------------|-5-5-5||-
-3-|-3-3-3-||-------------------------------------------------------|-3-3-3||-


----------------------------------------------|-------------------|-----------
-------11-----13br-p11----11-h13-13br-p11-h13-|------11-----------|-----------
-12-12----12-----------12---------------------|12-12----12-12-p10-|-----------
----------------------------------------------|-------------------|-----------
----------------------------------------------|-------------------|-----------
----------------------------------------------|-------------------|-----------


---------------------------------|3-3-3-||-----------------------------|------
---------------------------------|3-3-3-||-13b^15^15r-13-13-13b^15^15r-|------
-r5-3----5----3------------------|3-3-3-||-----------------------------|------
------5----5----5--------3-------|5-5-5-||-----------------------------|------
---------------------------3-----|5-5-5-||-----------------------------|------
-----------------------------6-3-|3-3-3-||-----------------------------|------

-----------------------------|------------------|----------------10-|---------
-----------11-h13-13b^15^15r-|-13-13-13b^15^15r-|----13b-11-h13--10-|-13b^15--
-----10-12-------------------|------------------|-12-------------10-|---------
-/12-------------------------|------------------|----------------12-|---------
-----------------------------|------------------|----------------12-|---------
-----------------------------|------------------|----------------10-|---------


----------------------------------|-------------|---------------8-|-----------
-10-11-11b----11-10----11-10------|-------------|----10-11-/13--8-|11-p10-----
--------------------12-------10---|----10-------|-12------------8-|-------10--
--------------------------------12|-10----10-h12|---------------10|-----------
----------------------------------|-------------|---------------10|-----------
----------------------------------|-------------|---------------8-|-----------


---------------------|---------|------|-3-3-3||-------------------------------
---------------------|---------|------|-3-3-3||-------------------------------
----8----9br-p8------|---------|------|-3-3-3||-------------------------------
-10---10--------h10--|---------|------|-5-5-5||-------------------------------
---------------------|-5-p3----|------|-5-5-5||-------------------------------
---------------------|------h6-|-3-3-1|-3-3-3||-------------------------------


------------------------------------------------------------------------------
------------------------------------------------------------------------------
--------3---5br-3---5---/7-5-3---5---3----------------------------------------
----3-5---5-------5---5--------5---5---5--------------------------------------
-/5--------------------------------------5-p3---------------------------------
----------------------------------------------6--3----------------------------


-|-10-10-10|-------------------------10-----------|---------------------------
-|-11-11-11|-13b^15-----13br-11-h13--10----13b^15-|--10-h11-p10---10----------
-|-12-12-12|---------12--------------10-----------|------------12----10-------
-|-12-12-12|-------------------------12-----------|---------------------------
-|-10-10-10|-------------------------12-----------|---------------------------
-|-10-10-10|-------------------------10-----------|---------------------------


-----------|--------6|-5-5--3-3-------------|--------------10|----------------
-----------|--------8|-----------6-6--3-----|--13br-11-h13-10|----------------
--10----10-|-12b----6|------------------5---|--------------10|----------------
-----12----|--------8|----------------------|--------------12|----------------
-----------|--------6|----------------------|--------------12|----------------
-----------|--------6|----------------------|--------------10|----------------


-10-10-----10-----------------------------------------------------------------
-------13b----13-11-10--------------------------------------------------------
--------------------------12-10----------10-----------------------------------
--------------------------------12----10----10--10/12-------------------------
------------------------------------------------------------------------------
------------------------------------------------------------------------------


---------------------------|--15-15-15-||-------------------------------------
---------11-13-13br-p11----|--15-15-15-||-------------------------------------
--/12-12----------------12-|--15-15-15-||-------------------------------------
---------------------------|--17-17-17-||-------------------------------------
---------------------------|--17-17-17-||-------------------------------------
---------------------------|--15-15-15-||-------------------------------------


-------------------------|-------------------------------------------|-|-|----
-------------------------|-------------------------------------------|-|-|----
-----3----5br-3---5---3--|-------------------------------------------|-|-|----
-/5----5--------5---5---5|-----0-------------------------------------|-|-|----
-------------------------|/1-1---1-3-1----1-h3-3-h4-p3-p1---1--------|-|-|----
-------------------------|--------------3-----------------3---3-3-1-3|-|-|----


-----------0--|
-------6------|
---------0----|
-----8--------|
--------------|
--\---X---2--/|


-----------0----|---/-3-|---|---------|---|---|-3-|-3-----|---------------3--|
-------6------5-|---/-3-|-5-|---6----5|-8-|-7-|-3-|-4-p3h4|------3--------6--|
---------0----3-|-2-/-3-|-3-|-----0--3|-8-|-5-|-3-|-5-----|----3---3------5--|
-----8--------5-|-3-/-5-|-5-|-8------5|-8-|-7-|-5-|-5-----|--5-------5----4--|
--------------3-|-3-/-5-|-3-|--------3|-6-|-5-|-5-|-3-----|5--------------3--|
--\---X---2----/|-1-/-3-|---|---------|---|---|-3-|-3-----|------------------|
C7 F G C7 E7 D7 Gm Cm Gm - arpeggio D#5/7

1       Remember when you were young
2       Now there's a look in your eyes
3       you reached for the secret too soon
4       threatened by shadows at night
--3-|
--3-|
--3-|
--5-|
--5-|
--3-|
Gm

1       you shone like the sun
2       like black holes in the sky
3       you cried for the moon
4 and exposed in the light
-----2--------------1-|
-----2--------------1-|
-----3--------------3-|
-----5--------------3-|
-----5--------------3-|
-----2--------------1-|
F# Bb

1, 2, 3, 4      shine on you crazy diamond
------5---3----1----1-|--------|-2-|
8-----6---6----3----1-|--------|-2-|
8-----7---5----3----2-|--------|-3-|
8-----7---5----3----3-|--------|-4-|
6-----5---3----1----3-|--------|-4-|
------5---3----1----1-|--------|-2-|
E5 Dm Cm Bb F F#

2       you were caught in a crossfire of childhood and stardom
4       well you wore out your welcome with random precision
-----------3--------------------------3-|
-----------3--------------------------3-|
-----------3--------------------------3-|
-----------5--------------------------4-|
-----------5----------------------------|
-----------3----------------------------|
Gm Gm/F#

2 blown on the steel breeze
4 rode on the steel breeze
-3------------------3------------|
-3------------------3------------|
-3------------------3------------|
-3------------------3------------|
---------------------------------|
----------------------------------|
Gm/F Gm

2       come on you target for faraway laughter
4       come on you raver you see off vision
-----------------------------------------|
--8---------------------5----------------|
--8---------------------3----------------|
--8---------------------5----------------|
--6---------------------3----------------|
-----------------------------------------|
E5 C7

2       come on you stranger, you legend, you martyr and shine
4       come on you painter, you piper, you prisoner and shine
--6------------------------5----------5------------3--|
--6------------------------6----------7------------3--|
--7------------------------7----------7------------3--|
--8------------------------7----------7------------5--|
--8------------------------5----------5------------5--|
--6------------------------5----------5------------3--|
Bb Dm D Gm

HERE STARTS THE SAX SOLO:
(listen the DVD for the chords progression and for the rithm)

-------3-|-3---|-3-|---|-5-|-
--6----3-|-5-6-|-3-|-8-|-7-|-
----0--3-|-5---|-3-|-8-|-7-|-
8------5-|-5---|-5-|-8-|-7-|-
-------5-|-3---|-5-|-6-|-5-|-
\-X-2--3/|-3---|-3-|---|-5-|-
Gm C Gm E5 D

Here the rhythm changes
----------------------3-3--|-3-|-3---|-3-|---|-5-|-0------8------10-----8----------|-p-|
7-7---5-5---3-3--5-5--3-3--|-3-|-5-6-|-3-|-8-|-7-|---6------6-------6-----6--------|-i-|
7-7---5-5---3-3--6-6--3-3--|-3-|-5---|-3-|-8-|-7-|---------------------------------|-e-|
7-7---5-5---3-3--7-7--5-5--|-5-|-5---|-5-|-8-|-7-|-----8-------8------8-----8------|-f-|
5-5---3-3---1-1--7-7--5-5--|-5-|-3---|-5-|-6-|-6-|---------------------------------|-f-|
5-5---3-3---1-1--5-5--3-3--|-3-|-3---|-3-|---|-6-|-arpeggio like the original song-|-e-|
D C Bb A Gm Gm C Gm E5 D
 
            
Submit corrections


        Shine On You Crazy Diamond lessons Hard to play? Try these video lessons and learn fast Shine On You Crazy Diamond lessons
        
↑ Back to top | Tablatures and chords for acoustic guitar and electric guitar, ukulele, drums are parodies/interpretations of the original songs. You may use it for private study, scholarship, research or language learning purposes only