» » »

David Gilmour - Rattle That Lock Tabs

Artists:  A B C D E F G H I J K L M N O P Q R S T U V W X Y Z # 

Rattle That Lock Tabs

(ver. 1) Click to play this song!
David Gilmour
 Rating:
4.2/5 (20 votes)

 Rattle That Lock  lessons Tabs too difficult? Try these video lessons and learn fast
 
                Solo 1 (1:27)

  Cm 
e|-------------------------------------------------------------------------------|
B|-13~~~~~~~~~---------------------------------11-11--13-13-14b16----------------|
G|---------------10b12--8b-----------------/12-------------------------8---------|
D|-------------------------10-10~~~~\------------------------------/10---10-10---|
A|-------------------------------------------------------------------------------|
E|-------------------------------------------------------------------------------|

                                   Ab                             Fm
e|--------------------------------------------------------------------11--13b15--|
B|----------------------------------------------13----11--13~~~~~-/13------------|
G|-/8-------------8b---X--10b-/8------------/12----12----------------------------|
D|----10-10-8--10------X-----------10---X----------------------------------------|
A|---------------------X----------------X----------------------------------------|
E|-------------------------------------------------------------------------------|
   
           Ab                        Fm                           Cm
e|-13\----------10b--------------------------------------------------------------|
B|------------------13-11---------------------11b13-8----11--11---11b13----------|
G|------------------------10b-------------------------10-------------------------|
D|-----------------------------13----13\-----------------------------------------|
A|-------------------------------------------------------------------------------|
E|-------------------------------------------------------------------------------|



Solo 2 (3:35)

               Cm
e|-------------------------------------------------------------------------------|
B|-11b13~~~~~--11b13\----11b13-11b13-11b13~--8--11-11b13---11b13~~~~~~--13--16---|
G|-------------------------------------------------------------------------------|
D|-------------------------------------------------------------------------------|
A|-------------------------------------------------------------------------------|
E|-------------------------------------------------------------------------------|

                                                                     Ab
e|---------------------13------------------------------------------8-------8-----|
B|-16b20--16/13--16b18----16b18-(16)\-----16b18--16\15--13\----------11b13-------|
G|-----------------------------------------------------------10b11---------------|
D|-------------------------------------------------------------------------------|
A|-------------------------------------------------------------------------------|
E|-------------------------------------------------------------------------------|

                                   Fm
e|-11\8--8--13\8--8--X-----11------13b15-13b15--11-13--13--11b13-(11)b13---------|
B|---------------------/13----(0)---------------------------------------------16-|
G|------------------------------------------------------------------------17-----|
D|-------------------------------------------------------------------------------|
A|-------------------------------------------------------------------------------|
E|-------------------------------------------------------------------------------|

   Ab                                         Fm
e|-------------------------------------------------------------------------------|
B|-18b20-----16-16b17b18-----------------------------------------------------4---|
G|--------17--------------17--(17)\15-15--17\----10b11--8------8-10\-----3-------|
D|---------------------------------------------------------10---------/5---5-----|
A|-------------------------------------------------------------------------------|
E|-------------------------------------------------------------------------------|


        Cm OUTRO
e|-------------------------------------------------------------13b15--11--13b15--|
B|----3--------10b11----/13~~~~(13)-13--13--13--13--(13)\------------------------|
G|------3/5----------8-----------------------------------------------------------|
D|-(5)---------------------------------------------------------------------------|
A|-------------------------------------------------------------------------------|
E|-------------------------------------------------------------------------------|


e|-13b15-11---13--11-------------------------------------------------------------|
B|--------------------X--X-11-(11)b13--8--11---11b13-------13--16-15b16-16--13---|
G|--------------------X--X-------------------------------------------------------|
D|--------------------X--X-------------------------------------------------------|
A|-------------------------------------------------------------------------------|
E|-------------------------------------------------------------------------------|

                                                                  FADE OUT
e|-------------------------------------------------------------------------------|
B|-(13)-11--------------------------------------13-15--15b16-15-13-(13)-11-------|
G|----------12\10-8--10/8-/12-10-8-10--5-5--(5)----------------------------------|
D|-------------------------------------------------------------------------------|
A|-------------------------------------------------------------------------------|
E|-------------------------------------------------------------------------------|

            
Submit corrections


        Rattle That Lock  lessons Hard to play? Try these video lessons and learn fast Rattle That Lock  lessons
        
↑ Back to top | Tablatures and chords for acoustic guitar and electric guitar, ukulele, drums are parodies/interpretations of the original songs. You may use it for private study, scholarship, research or language learning purposes only