» » »

David Gilmour - Raise My Rent Tabs

Artists:  A B C D E F G H I J K L M N O P Q R S T U V W X Y Z # 

Raise My Rent Tabs

(ver. 2) Click to play this song!
David Gilmour
 Rating:
3.9/5 (25 votes)

 Raise My Rent lessons Tabs too difficult? Try these video lessons and learn fast
 
                Tuning = Standard


00:59                                         b  b  r          brp
e|--b------------b-r-----b-12--15--b--s-|----17-17----|-15-17-17--15----15--b-r-|-----------b---b-------s-|
B|-15-~~--12-15-15---12-15--------15--\-|-15----------|--------------17----18---|----15-17-18--18--17~~~\-|
G|--------------------------------------|-------------|-------------------------|-16----------------------|
D|--------------------------------------|-------------|-------------------------|-------------------------|
A|--------------------------------------|-------------|-------------------------|-------------------------|
E|--------------------------------------|-------------|-------------------------|-------------------------|


e|----12---p----b-|---------h--p-------------------|-----------------|---------------b--r-|
B|--b----15-12-15-|-15-13-12-13-12----12--brp------|--------brp------|--------brp---15----|
G|-14-------------|----------------14----14--12----|-12-14-14--12----|-12-14-14--12-------|
D|----------------|-----------------------------14-|--------------14-|--------------------|
A|----------------|--------------------------------|-----------------|--------------------|
E|----------------|--------------------------------|-----------------|--------------------|

01:26  b         b
e|-12-15-15--14-14-14-|---p----brp--------12-|---p-----------------------|----------------------------|
B|--------------------|-15-12-15--12--b-12---|-15-12------rbp--------s---|--------rbp-----------b-----|
G|--------------------|--------------14------|-------14--14--12----12\14-|-12-14-14--12----14-12----s-|
D|--------------------|----------------------|------------------14-------|--------------14-------14-\-|
A|--------------------|----------------------|---------------------------|----------------------------|
E|--------------------|----------------------|---------------------------|----------------------------|

01:38                                                  b  r           h  p                     
e|---------------------|------------------------|-----15-----15-13--12-13-12----12-------|-----------br-13-|
B|---------------------|-----------------12-~~~-|-13-------------------------15----13-13-|----13-15-15-----|
G|-------b-b--rbp------|-----------12-14--------|----------------------------------------|-12--------------|
D|---5-7-7-7--7--5-7---|-s---12-14--------------|----------------------------------------|-----------------|
A|-7-----------------7-|-\14--------------------|----------------------------------------|-----------------|
E|---------------------|------------------------|----------------------------------------|-----------------|

                                           02:05
e|--b---br-----s-|--b------|--------------|-------------------|------------------------|-----------------|
B|-15--15-13-~~\-|-15-~~~~-|--rb--rb----s-|-------------------|------------------------|----------p------|
G|---------------|---------|-14--14--12-\-|-------------------|-s--7-7-----------------|-s--7-9-12-9-~~~-|
D|---------------|---------|--------------|--------5----------|-\9-----9-7---p----h--s-|-\9--------------|
A|---------------|---------|--------------|-s--5-7---7~~~~~~~-|------------10-7--5-7-\-|-----------------|
E|---------------|---------|--------------|-\7----------------|------------------------|-----------------|
                                                    02:24
                                                    rake                         rb                        b s
e|---brbrbr-----------rbp-----p--------------------|-------------15--b|---17-19-19--20--19-17-19-17-15-17-17-\-|
B|-10------~~8-10--10--8--10-8---------------------|---17-15-17-----15|--x-------------------------------------|
G|-------------------------------9--9-7------p-----|--x---------------|-x--------------------------------------|
D|--------------------------------------7-5-7-5----|-x----------------|----------------------------------------|
A|----------------------------------------------7-~|------------------|----------------------------------------|
E|-------------------------------------------------|------------------|----------------------------------------|

02:37
e|--rbp---------|--------|-----b----------h--p---------------|-----------------------s---------s----b-r--b-|
B|-10--8---10---|--------|----15--15-13-12-13-12----12-------|-----------br-13--12-13\15--13-15\17-18---18-|
G|-------9----9-|--------|-12--------------------14----12-12-|----12-14-14---------------------------------|
D|--------------|-7--7-5-|-----------------------------------|-12------------------------------------------|
A|--------------|--------|-----------------------------------|---------------------------------------------|
E|--------------|--------|-----------------------------------|---------------------------------------------|

                                             03:00
e|--rb-rb----s-|-12------p------------------|--------------|---b--brp-----------|
B|-18-18--20-\-|----12-15-12----------------|--------8-~~~-|-7-8--8--7---b--r---|
G|-------------|-------------14-12--------s-|-s--7-9-------|-----------9-9----7-|
D|-------------|-------------------14~~~--\-|-\9-----------|--------------------|
A|-------------|----------------------------|--------------|--------------------|
E|-------------|----------------------------|--------------|--------------------|


e|---------h-p--------b---p------p----------|---------p-------|----------------------|
B|--h--7--7-8-7---7-8-8--8-7-8--8-7---7-b-r-|--b-12-15-12--br-|---h--p--s--------p---|
G|-7-9----------9-------------------9---9---|-14----------14--|-12-14-12\11-12-12-11-|
D|------------------------------------------|-----------------|----------------------|
A|------------------------------------------|-----------------|----------------------|
E|------------------------------------------|-----------------|----------------------|

03:19
e|-----b--r-------p---------p----p-----------------|-----------|----------------|--------|---------|----------|
B|----12-----12-12-10--10-10-8--8-7----p--br--p----|-----------|----------------|--------|---------|----------|
G|-11---------------------------------9-7-9----7---|------p----|-------b-2-s--7-|-rbp----|---------|----------|
D|-----------------------------------------------9-|-7-5-7-5---|-s---5-5---\9---|-7--5---|--p------|----------|
A|-------------------------------------------------|---------7-|-\7-------------|------7-|-7-5---5-|----p---s-|
E|-------------------------------------------------|-----------|----------------|--------|-----7---|-5-7-5-7\-|

                     03:47
e|-------|--b--s----|--p----------------|-----------------------------------|-------------|
B|---X---|-15--\----|-8-7--p---p--------|-----------------------------------|-------------|
G|-X-X-X-|----------|-----9-7-9-7-------|-----------------------------------|-------------|
D|-X-X-X-|----------|-------------9-7---|-X---------------------------------|-------5-----|
A|-X---X-|----------|-----------------7-|-X-5-7-7--5-7--s---s--5------p-----|-7-5-7---5-7-|
E|-------|----------|-------------------|--------------7\--5\7---7-3-5-3-0--|-------------|

03:57
e|-----hold--------------------------------------------|
B|-----bend--------------------------------------------|
G|---b-|-|-|-rbp----p----------------------------------|
D|-5-7-7-7-7-7--5--7-5-----p-------p----------------s--|
A|---------------------7--7-5-----7-5--p---p---p---5\7-|
E|----------------------------7-------7-5-7-5-3-0------|


e|------------|----------|-----0--p---p--|------------|------------|
B|-------p----|----b-0-3-|-b-0---3-0-3-0-|---p---p----|-brp--------|
G|------2-0---|--0-2-----|-2-------------|--2-0-2-0---|-2--0-------|
D|--0-2-----2-|----------|---------------|----------2-|------2-~~~-|
A|------------|----------|---------------|------------|------------|
E|------------|----------|---------------|------------|------------|

04:10              |------fast------|
e|-------b-brp---------5--p---------|----------------------------|------------|
B|-b-5-8-8----5--5-b-5---8-7-brp----|-----b----------------------|------------|
G|-7---------------7---------7--5---|-----5--------s-----------s-|------------|
D|--------------------------------7-|-5-7---7-5-7-7\9--7-5-7-9-\-|--------5---|
A|----------------------------------|----------------------------|-s--5-7---7-|
E|----------------------------------|----------------------------|-\7---------|

04:20
e|---------------------------------------------------------------|----------b-r---p-------------s-|
B|---------------------------------------------------------------|-s--8-10-10---10-8-10--s--8~~~\-|
G|-brp---------------------------b----------------s--------s-----|-\9--------------------\9-------|
D|-7--5---7---5-7--5-7--5-7--5-7-5--7-5-7--5-7-9-9\10~~~--7\9-10-|--------------------------------|
A|------7---7----------------------------------------------------|--------------------------------|
E|---------------------------------------------------------------|--------------------------------|

04:35                   less bend |  |  |
e|--rbp---b---s---rb-rb-rb-rb-rb-rb-rb-rb--s-|----------------------|--------------------------|
B|-10--8-10~~~\--10-10-10-10-10-10-10-10--8\-|----------------------|--------------------------|
G|-------------------------------------------|-rbp----p-------------|--------------------------|
D|-------------------------------------------|-7--5--7-5--p---------|---------p----------------|
A|-------------------------------------------|-----------7-5-7~~~~~-|-s--5-7-2-0---0-----------|
E|-------------------------------------------|----------------------|-\7---------3---3--0-0--0-|


e|-----------s-|-------|-----0--p-------------------------------|----------------------------------------|
B|-X-X-X-X-12\-|-b-0-3-|-b-0---3-0---rbp---p--------------------|----------------------------------------|
G|-X-X-X-X-12\-|-2-----|-2---------2-2--0-2-0----p--------------|----------------------------------------|
D|-X---X-------|-------|----------------------2-2-0--p---p------|--p-------------------------------------|
A|-X-----------|-------|----------------------------2-0-2-0--p--|-2-0--p--5-7--7-5-7--5-7--5-7--5-7--5-7-|
E|-------------|-------|------------------------------------3-0-|-----3-0--------------------------------|

                     05:05                                                                                b
e|------------------|---UB--------------12---p----------------------------------|--------b-s-|-s---15-17-17-|
B|------------------|-X-12--12-15--b-12----15-12--b-12--------------------------|--b-12-15-\-|-\17----------|
G|----b-b-b-br----s-|-X-14--------14-------------14----14-12----12-----------12-|-14---------|--------------|
D|-7--7-7-7-7-5-~~\-|----------------------------------------14-----14-12-14----|------------|--------------|
A|------------------|-----------------------------------------------------------|------------|--------------|
E|------------------|-----------------------------------------------------------|------------|--------------|

05:13
    rbp
e|-17--15----17--15-17--15-17--15-12---------------------------------------------------------|
B|--------17---------------------------------p-----------------------------------------------|
G|-----------------------------------14-12-14-12-----12--------------------------------------|
D|-----------------------------------------------14-----14-12----p--s------p-----------------|
A|-------------------------------------------------------------14-12\11--11-9-----10-------s-|
E|----------------------------------------------------------------------------12-----12--12\-|

               fade out......................................................................................
e|----------------|----------------------s---|-------------------|-------------------------|-----|-10---------|
B|--------------s-|-x-12-X-12-X-12-X-x-14\12-|-------------------|-------------------------|-----|-----rb---b-|
G|-s---12----12-\-|-x-12-X-12-X-12-X-X-14\12-|-7-7---------------|-------------------------|-----|----13--12--|
D|-\14----14------|-x------------------------|-----7-5-7-5-7-5---|--h-----------------p----|-5---|------------|
A|----------------|--------------------------|-----------------7-|-5-7-5--------h--5-7-5-7-|---7-|------------|
E|----------------|--------------------------|-------------------|-------7-5-3-3-5---------|-----|------------|
..........
        b
e|--b--15-|
B|-15-----|
G|--------|
D|--------|
A|--------|
E|--------|            
Submit corrections


        Raise My Rent lessons Hard to play? Try these video lessons and learn fast Raise My Rent lessons
        
↑ Back to top | Tablatures and chords for acoustic guitar and electric guitar, ukulele, drums are parodies/interpretations of the original songs. You may use it for private study, scholarship, research or language learning purposes only