» » »

David Gilmour - Castellorizon Tabs

Artists:  A B C D E F G H I J K L M N O P Q R S T U V W X Y Z # 

Castellorizon Tabs

(ver. 3) Click to play this song!
David Gilmour
 Rating:
4/5 (4 votes)

 Castellorizon lessons Tabs too difficult? Try these video lessons and learn fast
 
                                                Castellorizion                                  

Musoc by David Gilmour




                                             H        Q     S  E.   
E||-------|-------|-------|-------|-------|------------------------|
B||-------|-------|-------|-------|-------|------------------------|
G||-------|-------|-------|-------|-------|------------------------|
D||-------|-------|-------|-------|-------|----------------14-14---|
A||-------|-------|-------|-------|-------|------------------------|
E||-------|-------|-------|-------|-------|------------------------|


                                      |---3---|   
   W                     H.           E  E    E   
---------------------|---------------------------|
---------------------|---------------------------|
--16b----------------|---L------------L--Lh--14--|
---------------------|---------------------------|
---------------------|---------------------------|
---------------------|---------------------------|


   H.             S    S S   S     E    E   H         Q      
-------------------------------|----------------------------|
-------------------------------|----------------------------|
--16~------------16br--L-Lh-14-|--16\-----------------------|
-------------------------------|-------14--14~--------L\----|
-------------------------------|----------------------------|
-------------------------------|----------------------------|


  Q    S  E   S   H           E  S  S S  E   S  H        S  S  S  S  
---------------------------|----------------------------------------|
---------------------------|----------------------------------------|
-------9-11--11br-L--------|--L--Lh-9-9-11--11b-L--------L-11p-9s-7-|
---------------------------|----------------------------------------|
---------------------------|----------------------------------------|
---------------------------|----------------------------------------|


  E  E  E  E    E  E  Q        H.           Q     
----------------------------|--------------------|
----------------------------|--------------------|
--9-------------------------|--------------------|
-----9--9--7--7g9-----------|--------------------|
-------------------7--7~----|--L-----------------|
----------------------------|--------------------|


       \1/                                                
                                  |--3--|                 
   S   S  S   S   H.              E  E  E  H.             
-------------------------------|-------------------------|
--13s-15--L-(15)b-L------------|--L--L--L--L~------------|
-------------------------------|-------------------------|
-------------------------------|-------------------------|
-------------------------------|-------------------------|
-------------------------------|-------------------------|


  H.           S S   S  S     Q     S  E.   Q     E   E   
--------------------------|--------12--------------------|
--L------------L-Lh-12----|--15-------15b---L-----L\-----|
-----------------------14-|------------------------------|
--------------------------|------------------------------|
--------------------------|------------------------------|
--------------------------|------------------------------|


                       |--3--|  |---3---|                                      
    E.   S  S  S S   S E  E  E  E   E   E     S  S  S S S S S S S  S E   Q     
------------3p-0-------------0-------------|----------------------------------|
--3g5----5-------0-3g5-L--5-----5s--3p--0--|----------------------------------|
--------(4)--------------------------------|--2b-Lh-0---2---0-2-2b-L-2b--L----|
-------------------------------------------|----------2---2-------------------|
-------------------------------------------|----------------------------------|
-------------------------------------------|----------------------------------|


  H.           Q       Q     Q     E  E   S  E   S  S  E.   E    S   S  
--------------------|-------19b----L--L--17-19--19b-L-19b---L~--19p-17-|
--------------------|--------------------------------------------------|
--L-----------------|--------------------------------------------------|
--------------------|--------------------------------------------------|
--------------------|--------------------------------------------------|
--------------------|--------------------------------------------------|


                        |---3---|                              
   Q     S   S   S   S  E   E   E  Q        H.           Q     
--19~----Lh-20p-19p-17-19----------------|--------------------|
---------------------------17--17--L~----|--L-----------------|
-----------------------------------------|--------------------|
-----------------------------------------|--------------------|
-----------------------------------------|--------------------|
-----------------------------------------|--------------------|


                |------3-----|                                    
     Q.      E  Q     Q      Q           Q.      E  E  E  E   E   
-------------------------------------|---------------------------|
--<>11b------L-------11b----11pbr----|--11b------L--8-----8--10--|
-------------------------------------|-----------------9---------|
-------------------------------------|---------------------------|
-------------------------------------|---------------------------|
-------------------------------------|---------------------------|


   S  S E  E.   S  Q      E  S S     E  S S S  E   S  E  Q      E   E    E   
---------------10--L------L------|---------------------------------17h--19--|
--10b-L-L--L----L-10b~----L--8---|--10----8---10--10b-L---------------------|
-------------------------------9-|------9----------------9\~----------------|
---------------------------------|------------------------------------------|
---------------------------------|------------------------------------------|
---------------------------------|------------------------------------------|


                                                   |---3---|         
   Q.      E   Q.      S   S     Q     S  S S   S  E   E   E  Q      
--19b------L--19b------Lh-17-|--19----19b-L-Lh-17-19----------------|
-----------------------------|------------------------17--17--L~----|
-----------------------------|--------------------------------------|
-----------------------------|--------------------------------------|
-----------------------------|--------------------------------------|
-----------------------------|--------------------------------------|


  Q    Q     Q     T   S. S  S     Q     E   E    E   S   S  E   S   S  
-------------------------------|---------------------------------------|
--L----L\----------------17----|--20b----L--19b--19--17p-16------------|
------------------14s-16----16-|----------------------------16--16p-14-|
-------------------------------|---------------------------------------|
------------------12s-14-------|---------------------------------------|
-------------------------------|---------------------------------------|


   W                     W                  
----------------------|-------------------||
----------------------|-------------------||
--14b~----------------|--L----------------||
----------------------|-------------------||
----------------------|-------------------||
----------------------|-------------------||




Duration Legend
---------------
W - whole
H - half
Q - quarter
E - 8th
S - 16th
T - 32nd
X - 64th
. - note dotted
|-n-|  - n-tuplets


Tablature Legend
----------------
L - tied note
x - dead note
g - grace note
(n) - ghost note
> - accentuded note
NH - natural harmonic
AH - artificial harmonic
TH - tapped harmonic
SH - semi harmonic
PH - pitch harmonic
h - hammer on
p - pull off
b - bend
br - bendRelease
pb - preBend
pbr - preBendRelease
brb - bendReleaseBend
\n/ - tremolo bar dip
\n - tremolo bar dive
-/n - tremolo bar Release up
/n\ - tremolo bar inverted dip
/n - tremolo bar return
-\n - tremolo bar Release down
S - shift slide
s - legato slide
/ -  slide into from below or out of upwards
\ -  slide into from above or out of downwards
~ - vibrato
W - wide vibrato
tr - trill
TP - tremolo picking
T - tapping
S - slap
P - pop
< - fade in
^ - brush up
v - brush down
            
Submit corrections


        Castellorizon lessons Hard to play? Try these video lessons and learn fast Castellorizon lessons
        
↑ Back to top | Tablatures and chords for acoustic guitar and electric guitar, ukulele, drums are parodies/interpretations of the original songs. You may use it for private study, scholarship, research or language learning purposes only