» » »

David Gilmour - And Then Tabs

Artists:  A B C D E F G H I J K L M N O P Q R S T U V W X Y Z # 

And Then Tabs

(ver. 2) Click to play this song!
David Gilmour
 Rating:
2/5 (26 votes)

 And Then  lessons Tabs too difficult? Try these video lessons and learn fast
 
                VOL = *
                                              hold
00:18                                         bend                   whammy
e|-----------s--s-----s-------s-|-------|--b---|-r--------s-|--*------dive-|
B|-12~~~---12\10/12--\15~~~~~-\-|-*--s--|-15--15--15~~~~~-\-|-12~~~~~-/\---|
G|------------------------------|-9--\7-|-------------------|--------------|
D|------------------------------|-------|-------------------|--------------|
A|------------------------------|-------|-------------------|--------------|
E|------------------------------|-------|-------------------|--------------|

00:43
e|------------------|------------------|-----------|-----------------------|------------------|------------|
B|------------------|------------------|-----------|-----------b-r---------|--------h--s------|------------|
G|--------s-------s-|--------s---s-----|-----------|--s--9-11-11--9-11-----|--s--7-7-9-\------|---7--s-----|
D|--s--5-7\9~~~~~-\-|--s--5-7\9-/7-5-7-|--p--------|-7\9---------------9~~-|-7\9---------5~~~-|-7---7\9~~~-|
A|-5\7--------------|-5\7--------------|-7-5-5~~~~-|-----------------------|------------------|------------|
E|------------------|------------------|-----------|-----------------------|------------------|------------|
                                                                                 hold
                                                                                 bend
   rake     b                          b                           b           b  |  s       b r  brp
e|---12-14-14-14-12---s----|----12-14-14-14-12-------s-|----12-14-14-14-15-17-17-17--\-|----15---14--12-------|
B|--12--------------15\--b-|-15----------------15~~~-\-|-15----------------------------|-15-------------15-15-|
G|-12-------------------14-|---------------------------|-------------------------------|----------------------|
D|-------------------------|---------------------------|-------------------------------|----------------------|
A|-------------------------|---------------------------|-------------------------------|----------------------|
E|-------------------------|---------------------------|-------------------------------|----------------------|

01:35                                                         01:52
e|-------------------|---------------|-----------------------|------------|--------------|---------|
B|-15--rbp-----------|---------------|-----------------------|-------7----|--------------|---------|
G|----14--12-------s-|--p---s--7--s--|------s--s-------------|--s--9------|----s--s------|--s------|
D|-----------14~~~-\-|-9-7-7\9---9\7-|-5-5-5\7-/5------------|-7\9------9-|-7-7\9-/7-5-5-|-7\9-7-5-|
A|-------------------|---------------|------------7-7--5-5-5-|------------|--------------|---------|
E|-------------------|---------------|-----------------------|------------|--------------|---------|

                                         b          h     h                   brb r
e|--------b-r-----------b-|-12-14-15-17-17~~~~~-|-17-19-19-20--------------|-17--------|
B|-10-12-12---10-12-13-13-|---------------------|----------------17-17--15-|--------15-|
G|------------------------|---------------------|--------------------------|-----------|
D|------------------------|---------------------|--------------------------|-----------|
A|------------------------|---------------------|--------------------------|-----------|
E|------------------------|---------------------|--------------------------|-----------|

                                                         02:35
e|--------b---s-----------------------------------------|--------brb----|-----------------|
B|-12-15-15-15\---------b-rbrp-----b-rbp--------s-------|-15-15-15---15-|--------b--------|
G|--------------12--14-14-----12--11----9--9~~~-/16~~~~-|---------------|-12-14-14~~~~~~~-|
D|------------------------------------------------------|---------------|-----------------|
A|------------------------------------------------------|---------------|-----------------|
E|------------------------------------------------------|---------------|-----------------|

02:44
e|-b---------------------------|----------------|---------|
B|-7-7-5-----------------------|--------s---s---|---------|
G|-------7-5-4--------s-----s--|--s--7-9\12-/---|---------|
D|-------------7-7-5-7\9-5-5\7-|-7\9----------5-|--s------|
A|-----------------------------|----------------|-7\10-10-|
E|-----------------------------|----------------|---------|

02:56
e|--------b-rp-----s-------|----------------|---------|-----------b---------|--b-----------|
B|-10-12-12---10-12\-----s-|--------s-------|---------|----10-12-12-12------|-12-12---s----|
G|-------------------7-7-\-|--s--7-7\9--7-7-|-0----s--|-12-------------12-9-|-------12\--7-|
D|-------------------------|-7\9------------|---7-7\9-|---------------------|--------------|
A|-------------------------|----------------|---------|---------------------|--------------|
E|-------------------------|----------------|---------|---------------------|--------------|


e|-----------------------------|--------b-----|
B|--------s------------b-15-15-|-12-15-15~~~~-|
G|--s--7-7\9-11-12-14-14-------|--------------|
D|-7\9-------------------------|--------------|
A|-----------------------------|--------------|
E|-----------------------------|--------------|


------------------------------------
CLASSICAL GUITAR
*****************            
Submit corrections


        And Then  lessons Hard to play? Try these video lessons and learn fast And Then  lessons
        
↑ Back to top | Tablatures and chords for acoustic guitar and electric guitar, ukulele, drums are parodies/interpretations of the original songs. You may use it for private study, scholarship, research or language learning purposes only