» » »

David Bowie - Space Oddity Tabs

Artists:  A B C D E F G H I J K L M N O P Q R S T U V W X Y Z # 

Space Oddity Tabs

(ver. 2) Click to play this song!
David Bowie
 Rating:
4/5 (4 votes)


 Space Oddity lessons Tabs too difficult? Try these video lessons and learn fast
 
                This is my first tab! Enjoy!

CHORDS:

Fm7/E
e|-0-------|    
B|-1-------|    
G|-2-------|    
D|-3-------|    
A|-3-------|    
E|-0-------|    


C
e|-0-------|
B|-1-------|
G|-0-------|
D|-2-------|
A|-3-------|
E|---------|

Am
e|-0-------|
B|-1-------|
G|-2-------|
D|-2-------|
A|-0-------|
E|---------|

Am/G
e|-0------|
B|-1------|
G|-2------|
D|-2------|
A|-0------|
E|-3------|

D
e|-2-------|
B|-3-------|
G|-2-------|
D|-0-------|
A|---------|
E|---------|

Dsus4
e|-3-------|
B|-3-------|
G|-2-------|
D|-0-------|
A|---------|
E|---------|

E
e|-0-------|
B|-0-------|
G|-1-------|
D|-2-------|
A|-2-------|
E|-0-------|

Em7
e|-0-------|
B|-3-------|
G|-0-------|
D|-2-------|
A|-2-------|
E|-0-------|

E7
e|-0-------|
B|-3-------|
G|-1-------|
D|-2-------|
A|-2-------|
E|-0-------|

F
e|-1-------|
B|-1-------|
G|-2-------|
D|-3-------|
A|-3-------|
E|-1-------|

Fm
e|-1-------|
B|-1-------|
G|-1-------|
D|-3-------|
A|-3-------|
E|-1-------|

Bflat
e|-6-------|
B|-6-------|
G|-7-------|
D|-8-------|
A|-8-------|
E|-6-------|

Am(2)
e|-5-------|
B|-5-------|
G|-5-------|
D|-7-------|
A|-7-------|
E|-5-------|

A(2)
e|-5-------|
B|-5-------|
G|-6-------|
D|-7-------|
A|-7-------|
E|-5-------|

G
e|-3-------|
B|-3-------|
G|-4-------|
D|-5-------|
A|-5-------|
E|-3-------|

C(2)
e|-8-------|
B|-8-------|
G|-9-------|
D|-10------|
A|-10------|
E|-8-------|

E7/G#
e|---------|
B|-3-------|
G|-4-------|
D|-2-------|
A|---------|
E|-4-------|


Tablature Legend:

h - hammer on
p - pull off
<_> - harmonic
s - slide
b - bend
r - release bend
x - deaden string(s)


MAIN TAB


INTRO

   Fm7/E                          Em
e|-0---0-0-0---0-0-0-0-0--0-0-0-0-0---0-0-0-0-0-0-0-0-0---|
B|-1---1-1-1---1-1-1-1-1--1-1-1-0-0---0-0-0-0-0-0-0-0-0---|
G|-2---2-2-2---2-2-2-2-2--2-2-2-0-0---0-0-0-0-0-0-0-0-0---|
D|-3---3-3-3---3-3-3-3-3--3-3-3-0-2---2-2-2-2-2-2-2-0-0---| REPEAT 4 TIMES
A|-3---3-3-3---3-3-3-3-3--3-3-3-0-2---2-2-2-2-2-0h2-0-0---|
E|-0---0-0-0---0-0-0-0-0--0-0-0-0-0---0-0-0-0-0-0-0-0-0---|

VERSE

   C                              Em
e|-0---0-0---0-0---0-0----0-0-0-0-0---0-0-0---0-0-0-0-0-0-0-0-0---|
B|-1---1-1---1-1---1-1----1-1-1-0-0---0-0-0---0-0-0-0-0-0-0-0-0---|
G|-0---0-0---0-0---0-0----0-0-0-0-0---0-0-0---0-0-0-0-0-0-0-0-0---|
D|-2---2-2---2-2---2-2----2-2-2-0-2---2-2-2---2-2-2-2-2-2-2-0-0---|
A|-3---3-3---3-3---3-3----3-3-3-0-2---2-2-2---2-2-2-2-2-0h2-0-0---|
E|-0---0-0---0-0---0-0----0-0-0-0-0---0-0-0---0-0-0-0-0-0-0-0-0---|

   C                              Em
e|-0---0-0-0--0-0-0-0-0----0-0-0-0-0---0-0-0---0-0-0-0-0-0-0-0-0---|
B|-1---1-1-1--1-1-1-1-1----1-1-1-0-0---0-0-0---0-0-0-0-0-0-0-0-0---|
G|-0---0-0-0--0-0-0-0-0----0-0-0-0-0---0-0-0---0-0-0-0-0-0-0-0-0---|
D|-2---2-2-2--2-2-2-2-2----2-2-2-0-2---2-2-2---2-2-2-2-2-2-2-0-0---| REPEAT 2 TIMES
A|-3---3-3-3--3-3-3-3-3----3-3-3-0-2---2-2-2---2-2-2-2-2-0h2-0-0---|
E|-0---0-0-0--0-0-0-0-0----0-0-0-0-0---0-0-0---0-0-0-0-0-0-0-0-0---|

  Am              Am/G         D           Dsus4 D
e|-0---0-0-0--0-0-0--0-0-0-0-0-2---2-2---2-3-3-3-2---2-2-2-0-----------|
B|-1---1-1-1--1-1-1--1-1-1-0-0-3---3-3---3-3-3-3-3---3-3-3-0-----------|
G|-2---2-2-2--2-2-2--2-2-2-0-0-2---2-2---2-2-2-2-2---2-2-2-0-----------|
D|-2---2-2-2--2-2-2--2-2-2-0-0-0---0-0---0-0-0-0-0---0-0-0-0-----------|
A|-0---0-0-0--0-0-0--0-0-0-0-0-----------------------------------------|
E|----------------3--3-3-3-0-0-----------------------------------------|

   C                              Em
e|-0---0-0-0-0-0-0-0-0-0-0-0-0-0-0-0---0-0-0---0-0-0-0-0-0-0-0-0---|
B|-1---1-1-1-1-1-1-1-1-1-1-1-1-1-0-0---0-0-0---0-0-0-0-0-0-0-0-0---|
G|-0---0-0-0-0-0-0-0-0-0-0-0-0-0-0-0---0-0-0---0-0-0-0-0-0-0-0-0---|
D|-2---2-2-2-2-2-2-2-2-2-2-2-2-2-0-2---2-2-2---2-2-2-2-2-2-2-0-0---|
A|-3---3-3-3-3-3-3-3-3-3-3-3-3-3-0-2---2-2-2---2-2-2-2-2-0h2-0-0---|
E|-0---0-0-0-0-0-0-0-0-0-0-0-0-0-0-0---0-0-0---0-0-0-0-0-0-0-0-0---|

   C                              Em
e|-0---0-0-0--0-0-0-0-0-0-0-0-0-0-0-0-0---0-0-0---0-0-0-0-0---0-0-0-0--|
B|-1---1-1-1--1-1-1-1-1-1-1-1-1-1-1-0-0---0-0-0---0-0-0-0-0---0-0-0-0--|
G|-0---0-0-0--0-0-0-0-0-0-0-0-0-0-0-0-0---0-0-0---0-0-0-0-0---0-0-0-0--|
D|-2---2-2-2--2-2-2-2-2-2-2-2-2-2-2-0-2---2-2-2---2-2-2-2-2---2-2-2-0--|
A|-3---3-3-3--3-3-3-3-3-3-3-3-3-3-3-0-2---2-2-2---2-2-2-2-2---2-2-2-0--|
E|-0---0-0-0--0-0-0-0-0-0-0-0-0-0-0-0-0---0-0-0---0-0-0-0-0---0-0-0-0--|

  Am              Am/G         D
e|-0---0-0-0--0-0-0--0-0-0-0-0-2~-------------|
B|-1---1-1-1--1-1-1--1-1-1-0-0-3~-------------|
G|-2---2-2-2--2-2-2--2-2-2-0-0-2~-------------|
D|-2---2-2-2--2-2-2--2-2-2-0-0-0~-------------|
A|-0---0-0-0--0-0-0--0-0-0-0-0----------------|
E|----------------3--3-3-3-0-0----------------|

SOLO 1

e|-----7-----7~s15--16--13----20b21--------------------------|
B|--------6-------------------20b21-20---<19>----------------|
G|-----------------------------------------<19>--------------|  
D|-------------------------------------------<19>-<19>-<19>--|  
A|-----------------------------------------------------------|
E|0~~--------------------------------------------------------|
NOTE: THESE HARMONICS+BENDS ARE NOT WHAT IS PLAYED IN THE ACTUAL SONG.
I COULDN'T QUITE GET IT RIGHT SO THEY ARE JUST PLACEHOLDERS FOR NOW.


CHORUS
   C                              E      E7
e|-0---0-0---0-0-0-0-0-0-0-0-0-0--0---0-0-0---0-0-0-0-0-0-0-0-0-0--|
B|-1---1-1---1-1-1-1-1-1-1-1-1-0--0---0-0-3---3-3-3-3-3-3-3-3-3-0--|
G|-0---0-0---0-0-0-0-0-0-0-0-0-0--1---1-1-1---1-1-1-1-1-1-1-1-1-0--|
D|-2---2-2---2-2-2-2-2-2-2-2-2-0--2---2-2-2---2-2-2-2-2-2-2-2-2-0--|
A|-3---3-3---3-3-3-3-3-3-3-3-3-0--2---2-2-2---2-2-2-2-2-2-2-2-2-0--|
E|--------------------------------0---0-0-0---0-0-0-0-0-0-0-0-0-0--|

   F                             Fm            C
e|-1---1-1-1-1-1-1---1-1---1-1-1-1---1-1-1-0---0-0-0-0-0-0-0-0----|
B|-1---1-1-1-1-1-1---1-1---1-1-1-1---1-1-1-0---1-1-1-1-1-1-1-0----|
G|-2---2-2-2-2-2-2---2-2---2-2-2-1---1-1-1-0---0-0-0-0-0-0-0-0----|
D|-3---3-3-3-3-3-3---3-3---3-3-3-3---3-3-3-0---2-2-2-2-2-2-2-0----|
A|-3---3-3-3-3-3-3---3-3---3-3-3-3---3-3-3-0---3-3-3-3-3-3-3-0----|
E|-1---1-1-1-1-1-1---1-1---1-1-1-1---1-1-1-0---0-0-0-0-0-0-0-0----|

   F                                   Fm           C 
e|-1---1-1-1---1-1-1-1-1---1-1-1-1-1---1-1-1---1-0--0-0-0-0-0-0-0-0-------|
B|-1---1-1-1---1-1-1-1-1---1-1-1-1-1---1-1-1---1-0--1-1-1-1-1-1-1-0-------|
G|-2---2-2-2---2-2-2-2-2---2-2-2-2-1---1-1-1---1-0--0-0-0-0-0-0-0-0-------|
D|-3---3-3-3---3-3-3-3-3---3-3-3-3-3---3-3-3---3-0--2-2-2-2-2-2-2-0-------|
A|-3---3-3-3---3-3-3-3-3---3-3-3-3-3---3-3-3---3-0--3-3-3-3-3-3-3-0-------|
E|-1---1-1-1---1-1-1-1-1---1-1-1-1-1---1-1-1---1-0----------------0-------|

   F                               C
e|-1---1-1-1---1-1-1-1-1-1-1-1-1-0-0---0-0-0-0-0-0-0-0-0-0-0-------|
B|-1---1-1-1---1-1-1-1-1-1-1-1-1-0-1---1-1-1-1-1-1-1-1-1-1-0-------|
G|-2---2-2-2---2-2-2-2-2-2-2-2-2-0-0---0-0-0-0-0-0-0-0-0-0-0-------|
D|-3---3-3-3---3-3-3-3-3-3-3-3-3-0-2---2-2-2-2-2-2-2-2-2-2-0-------|
A|-3---3-3-3---3-3-3-3-3-3-3-3-3-0-3---3-3-3-3-3-3-3-3-3-3-0-------|
E|-1---1-1-1---1-1-1-1-1-1-1-1-1-0---------------------------------|

   E       E7                      F                                 Fm
e|-0---0-0-0---0-0-0-0-0---0-0-0-0-1---1-1-1---1-1-1-1-1---1-1-1-1-1-1-----|
B|-0---0-0-3---3-3-3-3-3---3-3-3-0-1---1-1-1---1-1-1-1-1---1-1-1-1-1-1-----|
G|-1---1-1-1---1-1-1-1-1---1-1-1-0-2---2-2-2---2-2-2-2-2---2-2-2-2-2-1-----|
D|-2---2-2-2---2-2-2-2-2---2-2-2-0-3---3-3-3---3-3-3-3-3---3-3-3-3-3-3-----|
A|-2---2-2-2---2-2-2-2-2---2-2-2-0-3---3-3-3---3-3-3-3-3---3-3-3-3-3-3-----|
E|-0---0-0-0---0-0-0-0-0---0-0-0-0-1---1-1-1---1-1-1-1-1---1-1-1-1-1-1-----|

   Fm      C                 F                               Fm
e|-1-1-1-0-0-0-0-0-0-0-0-0-0-1---1-1-1---1-1-1-1-1---1-1-1-1-1---1-1-1-----|
B|-1-1-1-0-1-1-1-1-1-1-1-1-0-1---1-1-1---1-1-1-1-1---1-1-1-1-1---1-1-1-----|
G|-1-1-1-0-0-0-0-0-0-0-0-0-0-2---2-2-2---2-2-2-2-2---2-2-2-2-1---1-1-1-----|
D|-3-3-3-0-2-2-2-2-2-2-2-2-0-3---3-3-3---3-3-3-3-3---3-3-3-3-3---3-3-3-----|
A|-3-3-3-0-3-3-3-3-3-3-3-3-0-3---3-3-3---3-3-3-3-3---3-3-3-3-3---3-3-3-----|
E|-1-1-1-0-------------------1---1-1-1---1-1-1-1-1---1-1-1-1-1---1-1-1-----|

     C                 F
e|-0-0-0-0-0-0-0-0-0-0-1---1-1-1---1-1-1-1---1-1-1-0-----|
B|-0-1-1-1-1-1-1-1-1-0-1---1-1-1---1-1-1-1---1-1-1-0-----|
G|-0-0-0-0-0-0-0-0-0-0-2---2-2-2---2-2-2-2---2-2-2-0-----|
D|-0-2-2-2-2-2-2-2-2-0-3---3-3-3---3-3-3-3---3-3-3-0-----|
A|-0-3-3-3-3-3-3-3-3-0-3---3-3-3---3-3-3-3---3-3-3-0-----|
E|-0-------------------1---1-1-1---1-1-1-1---1-1-1-0-----|

BRIDGE
   Fm7/E                           Em7
e|-0---0-0-0---0-0-0-0-0---0-0-0-0-0---0-0-0---0-0-0-0-0---0-0-0-0----|
B|-1---1-1-1---1-1-1-1-1---1-1-1-0-3---3-3-3---3-3-3-3-3---3-3-3-0----|
G|-2---2-2-2---2-2-2-2-2---2-2-2-0-0---0-0-0---0-0-0-0-0---0-0-0-0----|
D|-3---3-3-3---3-3-3-3-3---3-3-3-0-2---2-2-2---2-2-2-2-2---2-2-2-0----| REPEAT TWICE
A|-3---3-3-3---3-3-3-3-3---3-3-3-0-2---2-2-2---2-2-2-2-2---2-2-2-0----|
E|-0---0-0-0---0-0-0-0-0---0-0-0-0-0---0-0-0---0-0-0-0-0---0-0-0-0----|

   Bflat           Am               G               F
e|-6---6-6-6---6-0-5---5-5-5---5-0-3---3-3-3---3-0-1---1-1-1---1-1-1-1-1---1-1-1-|
B|-6---6-6-6---6-0-5---5-5-5---5-0-3---3-3-3---3-0-1---1-1-1---1-1-1-1-1---1-1-1-|
G|-7---7-7-7---7-0-5---5-5-5---5-0-4---4-4-4---4-0-2---2-2-2---2-2-2-2-2---2-2-2-|
D|-8---8-8-8---8-0-7---7-7-7---7-0-5---5-5-5---5-0-3---3-3-3---3-3-3-3-3---3-3-3-|
A|-8---8-8-8---8-0-7---7-7-7---7-0-5---5-5-5---5-0-3---3-3-3---3-3-3-3-3---3-3-3-|
E|-6---6-6-6---6-0-5---5-5-5---5-0-3---3-3-3---3-0-1---1-1-1---1-1-1-1-1---1-1-1-|

    C     F     G       A
e|--8---x-1-1-x-3---x-x-5--5----------|
B|--8---x-1-1-x-3---x-x-5--5----------|
G|--9---x-2-2-x-4---x-x-6--6----------|
D|--10--x-3-3-x-5---x-x-7--7----------| REPEAT TWICE
A|--10--x-3-3-x-5---x-x-7--7----------| 
E|--8---x-1-1-x-3---x-x-5--5----------|

SOLO 2

e|----------------------------------------------|
B|----------------------------------------------|
G|---5--7--5--------5---------------------------|
D|-7----------7-5-7--------5--7--5--------------|
A|----------------------7-----------7-----------|
E|-------------------------------------5--------|

e|---------5-----------------------------------------|
B|-------5---8-5-------------------------------------|
G|---5-6---------6---------8-10--8h9-----------8h9---|
D|-7---------------7----10-----------10--8h10--------|
A|---------------------------------------------------|
E|---------------------------------------------------|

e|------------------------------------------------|
B|-10--12--10-------------------------------------|
G|-11--12--11------------10s11--------------------|
D|------------12--10-12----------2----------------|
A|------------------------------------------------|
E|----------------------------------3--3--0-------|

VERSE

   C                               E       E7   
e|-0---0-0-0-0-0-0-0-0-0---0-0-0-0-0---0-0-0---0-0-0-0-0---0-0-0-0--|
B|-1---1-1-1-1-1-1-1-1-1---1-1-1-0-0---0-0-3---3-3-3-3-3---3-3-3-0--|
G|-0---0-0-0-0-0-0-0-0-0---0-0-0-0-1---1-1-1---1-1-1-1-1---1-1-1-0--|
D|-2---2-2-2-2-2-2-2-2-2---2-2-2-0-2---2-2-2---2-2-2-2-2---2-2-2-0--|
A|-3---3-3-3-3-3-3-3-3-3---3-3-3-0-2---2-2-2---2-2-2-2-2---2-2-2-0--|
E|-------------------------------0-0---0-0-0---0-0-0-0-0---0-0-0-0--|

   F                               Fm
e|-1---1-1-1---1-1-1-1-1---1-1-1-1-1---1-1-1-0-----|
B|-1---1-1-1---1-1-1-1-1---1-1-1-1-1---1-1-1-0-----|
G|-2---2-2-2---2-2-2-2-2---2-2-2-2-1---1-1-1-0-----|
D|-3---3-3-3---3-3-3-3-3---3-3-3-3-3---3-3-3-0-----|
A|-3---3-3-3---3-3-3-3-3---3-3-3-3-3---3-3-3-0-----|
E|-1---1-1-1---1-1-1-1-1---1-1-1-1-1---1-1-1-0-----|

   C                 F                               Fm
e|-0-0-0-0-0-0-0-0-0-1---1-1-1---1-1-1-1-1---1-1-1-1-1---1-1-1---1-0-|
B|-1-1-1-1-1-1-1-1-0-1---1-1-1---1-1-1-1-1---1-1-1-1-1---1-1-1---1-0-|
G|-0-0-0-0-0-0-0-0-0-2---2-2-2---2-2-2-2-2---2-2-2-2-1---1-1-1---1-0-|
D|-2-2-2-2-2-2-2-2-0-3---3-3-3---3-3-3-3-3---3-3-3-3-3---3-3-3---3-0-|
A|-3-3-3-3-3-3-3-3-0-3---3-3-3---3-3-3-3-3---3-3-3-3-3---3-3-3---3-0-|
E|-----------------0-1---1-1-1---1-1-1-1-1---1-1-1-1-1---1-1-1---1-0-|

e|-0---0-0-0-0-0-0-1---1-1-1---1-1-1-1-1---1-1-1-0-----|
B|-1---1-1-1-1-1-0-1---1-1-1---1-1-1-1-1---1-1-1-0-----|
G|-0---0-0-0-0-0-0-2---2-2-2---2-2-2-2-2---2-2-2-0-----|
D|-2---2-2-2-2-2-0-3---3-3-3---3-3-3-3-3---3-3-3-0-----|
A|-3---3-3-3-3-3-0-3---3-3-3---3-3-3-3-3---3-3-3-0-----|
E|---------------0-1---1-1-1---1-1-1-1-1---1-1-1-0-----|

   G              E7/G#
e|-3---3-3-3---3-0-------------8s10s8---8s10---8s10---8s10---8s7-----|
B|-3---3-3-3---3-0-3---3-3-3-----------------------------------------|
G|-4---4-4-4---4-0-4---4-4-4---5s7-s5---5s7----5s7----5s7----5s4-----|
D|-5---5-5-5---5-0-2---2-2-2-----------------------------------------|
A|-5---5-5-5---5-0---------------------------------------------------|
E|-3---3-3-3---3-0-4---4-4-4-----------------------------------------|

BRIDGE 2
   Fm7/E                           Em7
e|-0---0-0-0---0-0-0-0-0---0-0-0-0-0---0-0-0---0-0-0-0-0---0-0-0-0----|
B|-1---1-1-1---1-1-1-1-1---1-1-1-0-3---3-3-3---3-3-3-3-3---3-3-3-0----|
G|-2---2-2-2---2-2-2-2-2---2-2-2-0-0---0-0-0---0-0-0-0-0---0-0-0-0----|
D|-3---3-3-3---3-3-3-3-3---3-3-3-0-2---2-2-2---2-2-2-2-2---2-2-2-0----| REPEAT TWICE
A|-3---3-3-3---3-3-3-3-3---3-3-3-0-2---2-2-2---2-2-2-2-2---2-2-2-0----|
E|-0---0-0-0---0-0-0-0-0---0-0-0-0-0---0-0-0---0-0-0-0-0---0-0-0-0----|

  Bflat           Am               G               F
e|-6---6-6-6---6-0-5---5-5-5---5-0-3---3-3-3---3-0-1---1-1-1---1-1-1-1-1---1-1-1-|
B|-6---6-6-6---6-0-5---5-5-5---5-0-3---3-3-3---3-0-1---1-1-1---1-1-1-1-1---1-1-1-|
G|-7---7-7-7---7-0-5---5-5-5---5-0-4---4-4-4---4-0-2---2-2-2---2-2-2-2-2---2-2-2-|
D|-8---8-8-8---8-0-7---7-7-7---7-0-5---5-5-5---5-0-3---3-3-3---3-3-3-3-3---3-3-3-|
A|-8---8-8-8---8-0-7---7-7-7---7-0-5---5-5-5---5-0-3---3-3-3---3-3-3-3-3---3-3-3-|
E|-6---6-6-6---6-0-5---5-5-5---5-0-3---3-3-3---3-0-1---1-1-1---1-1-1-1-1---1-1-1-|

    C     F     G       A
e|--8---x-1-1-x-3---x-x-5--5----------|
B|--8---x-1-1-x-3---x-x-5--5----------|
G|--9---x-2-2-x-4---x-x-6--6----------|
D|--10--x-3-3-x-5---x-x-7--7----------| REPEAT TWICE
A|--10--x-3-3-x-5---x-x-7--7----------| 
E|--8---x-1-1-x-3---x-x-5--5----------|

SOLO 3

e|-------------------------------------------------------|
B|-------------------------------------------------------|
G|---5-7--5---------------------7h99-7h9p7---------------|
D|-7---------7--5--7------7h8h9-------------9p79p75------|
A|--------------------5-----------------------------7~---|
E|-------------------------------------------------------|

e|-------5------------------8--12-8------------------------|
B|-----5---8-5--------------8-------8----------------------|
G|-6-7---------6-7----------9---------10-9-----------------|
D|-----------------7-----------------------10--------------|
A|-------------------0-7-5--------------------10-8-7-8-7---|
E|---------------------------------------------------------|

e|---------------------------------------------|
B|---------------------------------------------|
G|-12-10----12-------12------------------------|
D|-------12-12-10----12-10----10----10---------|
A|----------------12-------12----12------------|
E|---------------------------------------------|

e|-12-1212-1212-1212-1212-1212-1212-1212-12-12-1212-1212-1212-1212--|
B|------------------------------------------------------------------|
G|------------------------------------------------------------------| 
D|------------------------------------------------------------------|
A|------------------------------------------------------------------|
E|------------------------------------------------------------------|
(this isn't 1,2,1,2, it's 12,12)

e|-12-12-1212-1212-----|
B|---------------------|
G|---------------------|
D|---------------------| FOR NEXT 30 SECONDS, GRADUALLY SLIDE UP THE e 
A|---------------------| STRING, EVEN PAST THE FRETS
E|---------------------|

FADE OUT
            
Submit corrections



        Space Oddity lessons Hard to play? Try these video lessons and learn fast Space Oddity lessons
        
↑ Back to top | Tablatures and chords for acoustic guitar and electric guitar, ukulele, drums are parodies/interpretations of the original songs. You may use it for private study, scholarship, research or language learning purposes only