» » »

David Bowie - Space Oddity Bass

Artists:  A B C D E F G H I J K L M N O P Q R S T U V W X Y Z # 

Space Oddity Bass

(ver. 1) Click to play this song!
David Bowie
 Rating:
4/5 (4 votes)
    Space Oddity lessons Tabs too difficult? Try these video lessons and learn fast
                SPACE ODDITY (1969)
DAVID BOWIE
BASS TAB BY ***EDDIE BASS***



    (0:14)               			|Ground control...
-----------------------------------------------------------------------------|
------14~9-------------14~9--------------------------------------------------|
-----------8-----7----------8-----7------------7---7----------7---7~17-------|
---------------------------------------8---8-----------8---8-----------------|

-----------------------------------------------------------------------------|
---7----5----4-----12~9------------------------------------------------------|
---------------------------------7---7---7---------7~19----7---7-5---5~7-----|
------------------------8---8---8---------8---8---8-----------------------5--|

---17--15--------------------------------------------------------------------|
-----------17------------------------------11/10-----------------------------|
---------------15~8-------------------------------10----11~8--7--------------|
-----------------------8-----5--8---5--8-------------------------0-----------|

-----------------------------------------------------------------------------|
-----------5---------------11/10---------------------------------------------|
--x--5-7-----8-----------8-------10--11----11--10--7--5--3-------------------|
------------------x-8/10------------------------------------3--1-------------|

-----------------------------------------------------------------------------|
------------7/9---7----------------------------------------------------------|
---------8-----------8--8---------------------8/9--9/12---12---12/11--8------|
--x-8/10-------------------8-8--8/1------8/10--------------------------------|

-----------------------------------------------------------------------------|
-----------------------------------------------------------------------------|
----------------------7--8--7-----------7------------8-----------------------|
--8---6/8----8---10------------7--0--------9---8--8--------------------------|

-----------------------------------------------------------------------------|
---------------10-----7-------6---7--8--10-----------------------------------|
------------8------8-------8----------------10--7----------------------------|
---x--8/10-----------------------------------------10---1--------------------|

-----------------------------------------------------------------------------|
-----------------------------------------------------------------------------|
-----------8/9----12/11/12---11/8--8----8------------------------------------|
---x--8/10--------------------------------8--10--8---10/5---3----1-----------|

-----------------------------------------------------------------------------|
-------------------------15--14---12-----------------------------------------|
----3-------------8--------------------15--14---12---------------------------|
-------1--1~8----------------------------------------15---12---0-------------|

-----------------------------------------------------------------------------|
-------------------------15--14--12------------------------------------------|
--------15--14--12-------------------15--14----------------------------------|
----12--------------13-----------------------12--7--0------------------------|

-----------------------------------------------------------------------------|
-------------8---7-----------7-----------------------------------------------|
---------8----8---8-----7/8----10---------8--7---------8---------------------|
----1~7--------------------------------8--------10--8-----8----1~13----------|


-----------------------------------------------------------------------------|
----15~9-------15--14--12--------------------------------7--9--(7)------7----|
---------8-----------------15-------14---10----10----10-------------10-------|
--------------------------------12----------12-------------------------------|

	SOLO
----------------------------------------------------------7----9-------------|
-------14---12-14~12---------------------------------7--9---9----9-----------|
----15---------------12--11--10---------------7----8-------------------------|
---------------------------------12---0----8---------------------------------|

----9-----9-----9------------------------------------------------------------|
-------10-----9---9---12~8---------------------------------------------------|
----------------------------7------------------------------------------------|
--------------------------------0--------------------------------------------|

         |Though I’ve passed one hundred thousand miles...
-----------------------------------------------------------------------------|
----12~9---------------10---10-7----------------------10---7-----------------|
---------------------7-----------10-7---------------8----8---8--8-8---8------|
---------8----6~8--8------------------0-----0--8~10--------------------------|

-------------9-10-10--9--10~8------------------------------------------------|
------7~10--------------------10~8-------------------------------------------|
------------------------------------10~8---8-7--7----------------------------|
----0-----------------------------------------------8-7-8-7-8--10~1---1------|

-----------------------------------------------------------------------------|
--------------10---7---6-----6-----------------------------------------------|
------------8----8---8----8----8-7-7--7~3------------------------------------|
----0--8~10-------------------------------1-1--------------------------------|

                     |Ground control to Major Tom, your circuit’s dead…
-----------------------------------------------------------------------------|
----------------5/7--5-5-----------------------------------------------------|
----0--5-8--5-8-----------x--7-7--7---7-----------------5----5------5--------|
------------------------------------8---5---5-8-8---8-7----8---8--8---8------|

-----------------------------------------------------------------------------|
-----------------------------------------------------------------------------|
----5-----------------5-7-5----------7/10--10-10---------10------------------|
------8-7-5--5--5--8--------8-8-5-------------------8/10---------------------|

----10-9-7-------------------------------------------------------------------|
-----------10---9-7-----------15-14-12---------------------------10-7--------|
--------------------10--8~14-----------15-14-12----------------8------10-8---|
------------------------------------------------15-12-0---8/10---------------|

-----------------------------------------------------------------------------|
----------14/15--15/14--14/12--12/10--10/9--9/7--7/5----5--------------------|
----14/15---------------------------------------------8---8-7-5---7-5-7---8--|
------------------------------------------------------------------------8----|

-----------------------------------------------------------------------------|
---------12------------------------------------------------------------------|
----8/10----9----6-7-8-10-10------8-7------8---8-----------------------------|
--------------------------------8-----10-8---8---8-------1~13----------------|


-------------10-12-14-12-10-9----9-------------------------------------------|
----13~9----------------------12---9--------7-10---------7-------------------|
---------8---------------------------7---10------10-7-10---------------------|
-----------------------------------------------------------------------------|

---------7-9~7---------------------------------------------------------------|
----9-10-------10~9-7-5---5--------------------------------------------------|
------------------------7---7-5---5---5------------5-7---7----7----7----7----|
--------------------------------8---8---8--5---5-8-----8----8----8----8------|

-----------14-16--14--13--11--9----------|
-----3~14------------------------12-11-9-|
-----------------------------------------|
-----------------------------------------|


THE END OF THIS SONG YOU CAN PLAY WITH THE SCALE…
            
Submit corrections

↑ Back to top | Tablatures and chords for acoustic guitar and electric guitar, ukulele, drums are parodies/interpretations of the original songs. You may use it for private study, scholarship, research or language learning purposes only