Home » D » Daughter »

Daughter - No Care Tabs

Artists:  A B C D E F G H I J K L M N O P Q R S T U V W X Y Z # 

No Care Tabs

(ver. 2) Click to play this song!
Daughter
0:05 - Intro
D#|------------------------------------------------|
A#|------------------------------------------------|
F#|------------------------------------------------|
C#|----0-----0-----0-----0-----0-----0-----0-----0-|x2
G#|--9-----7-----4-----4-----2-----2-----2-----2---|
C#|9-----7-----4-----5-----2-----2-----0-----0-----|

0:17
D#|------------------------------------------------|
A#|------------------------------------------------|
F#|------------------------------------------------|
C#|----0-----0-----0-----0-----0-----0-----0-----0-|x6
G#|--9-----7-----4-----4-----2-----2-----2-----2---|
C#|9-----7-----4-----5-----2-----2-----0-----0-----|

0:53
D#|------------------------------------------------|
A#|------------------------------------------------|
F#|------------------------------------------------|
C#|----0-----0-----0-----0-----0-----0-----0-----0-|x4
G#|--9-----7-----4-----4-----2-----2-----2-----2---|
C#|9-----7-----4-----5-----2-----2-----0-----0-----|

1:17
D#|------------------------------------------------|
A#|------------------------------------------------|
F#|------------------------------------------------|
C#|----0-----0-----0-----0--------REST-------------|
G#|--9-----7-----4-----4---------------------------|
C#|9-----7-----4-----5-----------------------------|

1:22
D#|------------------------------------------------|
A#|------------------------------------------------|
F#|------------------------------------------------|
C#|----0-----0-----0-----0-----0-----0-----0-----0-|x4
G#|--9-----7-----4-----4-----2-----2-----2-----2---|
C#|9-----7-----4-----5-----2-----2-----0-----0-----|

1:46
D#|------------------------------------------------|
A#|------------------------------------------------|
F#|------------------------------------------------|
C#|----0-----0-----0-----0-----0-----0-----0-----0-|
G#|--9-----7-----4-----4-----2-----2-----2-----2---|
C#|9-----7-----4-----5-----2-----2-----0-----0-----|

1:52
D#|------------------------------------------------|
A#|------------------------------------------------|
F#|------------------------------------------------|
C#|----0-----0-----0-----0-----0-----0-----0-----0-|
G#|--2-----2-----2-----2-----2-----2-----2-----2---|
C#|2-----2-----0-----0-----2-----2-----0-----0-----|

1:58 - REST

2:01
D#|------------------------------------------------|
A#|------------------------------------------------|
F#|------------------------------------------------|
C#|----0-----0-----0-----0-----0-----0-----0-----0-|x8
G#|--9-----7-----4-----4-----2-----2-----2-----2---|
C#|9-----7-----4-----5-----2-----2-----0-----0-----|
            
Submit corrections

↑ Back to top | Tablatures and chords for acoustic guitar and electric guitar, ukulele, drums are parodies/interpretations of the original songs. You may use it for private study, scholarship, research or language learning purposes only