Home » C » Cradle Of Filth »

Cradle Of Filth - Under Huntress Moon Bass

Artists:  A B C D E F G H I J K L M N O P Q R S T U V W X Y Z # 

Under Huntress Moon Bass

(ver. 2) Click to play this song!
Cradle Of Filth
================================================================================
                          C R A D L E   O F   F I L T H

                                       -

                       U N D E R   H U N T R E S S   M O O N
================================================================================


                                  THORNOGRAPHY
                          (c) Roadrunner Records - 2006


                             Tune down one full step
                                     D G C F


                                 Tempo = 120 BPM
                              Time Signature = 4/4


                          -----------------------------

                                 PADDY MCMULLAN

                                   Version 1.0
                               12th  December 2008
                             -----------------------

                             Tablature Symbols Used:


 p         -  Pull-Off
 h         -  Hammer-On
 (/)       -  Legato Slide (Blank space indicates length of slide)
 \         -  Slide Down to/Down From (Blank space indicates length of slide)
 /         -  Slide Up To/Up From (Blank space indicates length of slide)
 ( )       -  Ghost Note/Tied Note/Implied Note
 REST      -  Rest and sustain rest for duration of blank space
 |_3_|     -  Triplet Notes
 |___[1]   -  Ending 1/2/3 etc.



================================================================================
Intro: Play 4 times
================================================================================


||----------------------|----------------------|----------------------|
||--7----7----7----7----|--7----7----7----7----|--7----7----7----7----|
||--0----0----0----0----|--0----0----0----0----|--0----0----0----0----|
||----------------------|----------------------|----------------------|

 |__________________________________[1,2,3]
   |___3__|  |__3__|  |__3_|   |__3__|
|---------------------------------------| |
|---------------------------------------|*|
|------------2--3-----------------------|*|
|--0--1-1-1--------1--5---  \--6  \  3--| |

|_______________________________________[4]
   |___3__|  |__3__|  |__3_|  |___3___|
|----------------------------------------||
|----------------------------------------||
|------------2--3------------------------||
|--0--1-1-1--------1--5--  \--6 \ 5 \ 3--||



================================================================================
Post-Intro: Play once
================================================================================

    |__3__|  |__3___|  |__3__|  |__3___|
||----------------------------------------|
||----------------------------------------|
||----------------------------------------|
||--6--5--3--3--3-3-3--6--5--3--3--3-3-3--|


   |__3__|  |__3__|  |__3__|  |__3__|
|--------------------------------------|
|--------------------------------------|
|--------------------------------------|
|--6--5--3--6--5--3--8--6--5--8--6--5--|


   |__3__|  |__3___|  |__3__|  |__3___|
|----------------------------------------|
|----------------------------------------|
|----------------------------------------|
|--6--5--3--3--3-3-3--6--5--3--3--3-3-3--|


   |__3___|  |__3___|  |__3___|
|------------------------------------------||
|------------------------------------------||
|------------------------------------------||
|--8--8-8-8--5--5-5-5--6--6-6-6--10--  \---||



================================================================================
Verse: Play 4 times
================================================================================

    |__3___|  |____3___|  |__3___|  |____3___|
||----------------------------------------------|
||----------------------------------------------|
||----------------------------------------------|
||--2--2-2-2--2--2/3--(3)\2--2-2-2--2--2/3--(3)\|


   |___3__|  |____3___|  |__3__|  |__3__|
|------------------------------------------| |
|------------------------------------------|*|
|------------------------------------------|*|
|--2--2-2-2--2--2/3--(3)/6--6--6--3--5--3--| |



================================================================================
Play the Intro 4 times
================================================================================

================================================================================
Play the Post-Intro once
================================================================================

================================================================================
Play the Verse 4 times
================================================================================

================================================================================
Section 2 - Part I: Play twice
================================================================================


||---------------------|-----------------------|--------------------|
||---------------------|-----------------------|--------------------|
||---------------------|-----------------------|--------------------|
||--3------------1--3--|--4--------3--4--3--1--|--0------------1----|


|-----------------------| |
|-----------------------|*|
|-----------------------|*|
|--0--------1--3--1--4--| |



================================================================================
Section 2 - Part II: Play twice [ Tempo = 124 BPM ]
================================================================================


||----------------------------------|----------------------------------|
||----------------------------------|----------------------------------|
||--5-5-5-5-5-5-5-5-5-5-5-5-3-3-5-5-|--6-6-6-6-6-6-6-6-5-5-6-6-5-5-3-3-|
||----------------------------------|----------------------------------|


|----------------------------------|------------------------------| |
|----------------------------------|------------------------------|*|
|--2-2-2-2-2-2-2-2-2-2-2-2-2-2-3-3-|--2-2-2-2-2-2-2-2-2--3--2--6--|*|
|----------------------------------|------------------------------| |



================================================================================
Section 2 - Part III: Play twice
================================================================================


||----------------------------------|---------------------------------|
||----------------------------------|---------------------------------|
||--5-5-5-5-5-5-5-5-3-3-3-3-3-3-3-3-|--6-6-6-6-6-6-6-6-3-3-3-3-6-3-6--|
||----------------------------------|---------------------------------|


|----------------------------------|---------------------------------| |
|----------------------------------|---------------------------------|*|
|--5-5-5-5-5-5-5-5-3-3-3-3-3-3-3-3-|--6-6-6-6-6-6-6-6-3-3-3-3-6-6-6--|*|
|----------------------------------|---------------------------------| |



================================================================================
Play Section 2 - Part II twice
================================================================================

================================================================================
Section 2 - Part IV: Play twice
================================================================================


             |_3_| |_3_| |_3_| |_3_|
||--R-      -------------------------|
||--E-      -------------------------|
||--S-      -5-5-5-5-5-5-5-5-5-5-5-5-|
||--T-      -------------------------|

               |_3_| |_3_|  |_3_| |_3_|
|----R-       --------------------------|
|----E-       --------------------------|
|--5-S-       -5-5-5-5-5-5/ 8-8-8-8-8-8-|
|----T-       --------------------------|


               |_3_| |_3_|  |__3___| |__3___| |____________________________[1]
|----R-       --------------------------------|----------------------------| |
|----E-       --------------------------------|----------------------------|*|
|--8-S-       -5-5-5-5-5-5/ 10-10-10-10-10-10-|--11----10----9--11--10--9--|*|
|----T-       --------------------------------|----------------------------| |

|___________________________________[2]
         |___3___|        |___3___|
|------------------------------------||
|------------------------------------||
|--10----11--10--9--10----11--10--9--||
|------------------------------------||



================================================================================
Interlude 1: Play 4 times
================================================================================


    |__3_|  |__3_|  |__3_|  |__3__|
||----------------------------------|
||----------------------------------|
||--5----5--5--5----5----5--5--5----|
||----------------------------------|


   |_3__|  |___3_|   |___3__|  |___3__|
|-----------------------------------------|
|--------------------7 h 9--7--9 p 7------|
|--5----5--5--(5/8)-------------------8\ -|
|-----------------------------------------|

|_________________________________________________________________[1,2,4]
   |__3_|  |__3__| |__3_|  |__3__|     |__3_|  |__3_|  |__3_|  |__3__|
|-----------------------------------|-----------------------------------| |
|-----------------------------------|-----------------------------------|*|
|--2----2--2--2----2----2--4--4--4--|--2----2--2--2----0----0--2--2--2--|*|
|-----------------------------------|-----------------------------------| |


|_____________________________________________________________________[3]
   |__3_|  |__3__| |__3_|  |___3__|     |__3_|  |__3_|  |__3_|  |__3__|
|------------------------------------|-----------------------------------|
|------------------------------------|-----------------------------------|
|--2----2--2--2----2----0--2 h 4--0--|--2----2--2--2----0----0--2--2--2--|
|------------------------------------|-----------------------------------|


   |__3_|  |__3_|  |__3_|  |__3__|
|----------------------------------|
|----------------------------------|
|--5----5--5--5----5----5--5--5----|
|----------------------------------|


   |_3__|  |___3_|   |___3__|  |___3__|
|-----------------------------------------|
|--------------------7 h 9--7--9 p 7------|
|--5----5--5--(5/8)-------------------8\ -|
|-----------------------------------------|


   |__3_|  |__3__| |__3_|  |__3__|     |__3_|  |__3_|  |__3_|  |__3__|
|-----------------------------------|-----------------------------------||
|-----------------------------------|-----------------------------------||
|--2----2--2--2----2----2--4--4--4--|--2----2--2--2----0----0--2--2--2--||
|-----------------------------------|-----------------------------------||



================================================================================
Segue 1: Play once
================================================================================


||-------------------|-------------------|-------------------|
||-------------------|-------------------|-------------------|
||--0----------------|--(0)--------------|--0----------------|
||-------------------|-------------------|-------------------|

   |__3___|  |__3__|  |__3___|  |__3_____|
|------------------------------------------||
|------------------------------------------||
|------------2--3---------------2--3-------||
|--1--1-1-1--------1--1--1-1-1--------1p 0-||



================================================================================
Play the Intro 3 times, replacing the last bar with the 4th ending
================================================================================

================================================================================
Play the Post-Intro once
================================================================================

================================================================================
Play the Verse 4 times
================================================================================

================================================================================
Play Section 2 - Part IV once
================================================================================

================================================================================
Interlude 2: Play 4 times
================================================================================


You can just play the first interlude again if you want, but there are some
slight variations which are outlined below should you want to match the track
note-for-note:


    |__3_|  |__3_|  |__3_|  |__3__|
||----------------------------------|
||----------------------------------|
||--5----5--5--5----5----5--5--5----|
||----------------------------------|


   |_3__|  |___3_|   |___3__|  |___3__|
|-----------------------------------------|
|--------------------7 h 9--7--9 p 7------|
|--5----5--5--(5/8)-------------------8\ -|
|-----------------------------------------|


   |__3_|  |__3__| |__3_|  |__3__|    |__3_|  |__3__| |__3_|  |__3__|
|----------------------------------|-----------------------------------|
|----------------------------------|-----------------------------------|
|--2----2--2--2----2----2--4--4----|--2----2--2--2----0----0--2--0--2--|
|----------------------------------|-----------------------------------|


   |__3_|  |__3_|  |__3_|  |__3__|
|----------------------------------|
|----------------------------------|
|--5----5--5--5----5----5--5--5----|
|----------------------------------|


   |_3__|  |___3_|   |___3__|  |___3__|
|-----------------------------------------|
|--------------------7 h 9--7--9 p 7------|
|--5----5--5--(5/8)-------------------8\ -|
|-----------------------------------------|


   |_3__|  |__3__| |__3_|  |__3_|     |__3_|  |__3__| |__3_|  |__3__|
|----------------------------------|-----------------------------------|
|----------------------------------|-----------------------------------|
|--2----2--2--2----2----0--4----4--|--2----2--2--2----0----0--2--2--2--|
|----------------------------------|-----------------------------------|


   |__3_|  |__3_|  |__3_|  |__3__|
|----------------------------------|
|----------------------------------|
|--5----5--5--5----5----5--5--5----|
|----------------------------------|


   |_3__|  |___3_|   |___3__|  |___3__|
|-----------------------------------------|
|--------------------7 h 9--7--9 p 7------|
|--5----5--5--(5/8)-------------------8\ -|
|-----------------------------------------|


   |__3_|  |__3__| |__3_|  |__3__|     |__3_|  |__3_|  |__3_|  |__3__|
|-----------------------------------|-----------------------------------| |
|-----------------------------------|-----------------------------------|*|
|--2----2--2--2----2----2--4--4--4--|--2----2--2--2----0----0--2--2--2--|*|
|-----------------------------------|-----------------------------------| |


   |__3_|  |__3_|  |__3_|  |__3__|
|----------------------------------|
|----------------------------------|
|--5----5--5--5----5----5--5--5----|
|----------------------------------|


   |_3__|  |___3_|   |___3__|  |___3__|
|-----------------------------------------|
|--------------------7 h 9--7--9 p 7------|
|--5----5--5--(5/8)-------------------8\ -|
|-----------------------------------------|


   |_3__|  |__3__| |__3_|  |__3_|
|----------------------------------|
|----------------------------------|
|--2----2--2--2----2----2--4----4--|
|----------------------------------|


    |__3___|    |_3___|   |_3___|  |__3__|
|--(12\9)------(9\5)-----(5\2)-----2--------||
|----------10---------7---------3-----3--2--||
|-------------------------------------------||
|-------------------------------------------||



================================================================================
Segue 2: Play once [ Tempo = 148 BPM ]
================================================================================


||----------------------|----------------------|------------------------|
||----------------------|----------------------|------------------------|
||--5----5----5----5----|--5----5----5----5----|--5----5----5----5 \ 3--|
||----------------------|----------------------|------------------------|


|------------------------||
|------------------------||
|--3----3  /  6----6--5--||
|------------------------||



================================================================================
Outro I: Play 6 times
================================================================================


||-------------------------|----------------------| |
||-----------------(8 \ 7)\| -6----6--------------|*|
||--5----5----5------------|------------7----7----|*|
||-------------------------|----------------------| |



================================================================================
Outro II: Play twice
================================================================================


||------------------------|-----------------------|----------------------|
||------------------------|-----------------------|----------------------|
||--5----5--5--5----5--5--|--7----7----6--6--6----|--5----5----5----5----|
||------------------------|-----------------------|----------------------|


|----------------------| |
|----------------------|*|
|----------------------|*|
|--7----6----6----6----| |



================================================================================
Play Outro I 8 times
================================================================================

================================================================================
Play Outro II 4 times, ending on the following:
================================================================================


||-------------R-      -||
||-------------E-      -||
||--5-----  \--S-      -||
||-------------T-      -||



================================================================================
End
================================================================================


Tab summary:        Intro x 4
                    Post-Intro x 1
                    Verse x 4
                    Intro x 4
                    Post-Intro x 1
                    Verse x 4
                    Section 2:
                              Part I x 2
                              Part II x 2
                              Part III x 2
                              Part II x 2
                              Part IV x 2
                    Interlude 1 x 4
                    Segue 1 x 1
                    Intro x 3
                    Post-Intro x 1
                    Verse x 4
                    Section 2:
                              Part IV x 1
                    Interlude 2 x 4
                    Segue 2 x 1
                    Outro I x 6
                    Outro II x 2
                    Outro I x 8
                    Outro II x 4

                    END
            
Submit corrections

↑ Back to top | Tablatures and chords for acoustic guitar and electric guitar, ukulele, drums are parodies/interpretations of the original songs. You may use it for private study, scholarship, research or language learning purposes only