Home » C » Cradle Of Filth »

Cradle Of Filth - Blackest Magick In Practice Tabs

Artists:  A B C D E F G H I J K L M N O P Q R S T U V W X Y Z # 

Blackest Magick In Practice Tabs

(ver. 1) Click to play this song!
Cradle Of Filth
Tuning: D Standard

0:15
d|-------------------------------------------------------------------------|
A|-------------------------------------------------------------------------|
F|-------------------------------------------------------------------------|
C|-------------------------------------------------------------------------|
G|---6-4-6---6-4-6-7-6-4-6---6-4-6---6-4-6-7-6-4-6---6-4-6---6-4-6-7-6-4-6-|
D|-4-------4---------------2-------2---------------0-------0---------------|

d|-----------------------------------------------------------------|
A|-----------------------------------------------------------------|
F|-----------------------------------------------------------------|
C|-----------------------------------------------------------------|
G|-----------------9-9-9-9-7-7-7-7---------------------------------|
D|-7-7-7-7-7-7-7-7-----------------6-6-6-6-6-6-6-6-7-7-7-7-9-9-9-9-|

0:47
d|-----------------------------------------------------------------------|
A|-----------------------------------------------------------------------|
F|-----------------------------------------------------------------------|
C|-----------------------------------------------------------------8-9-6-|
G|-7-6---------3-2-3-2-----7-6-----7-6---------3-2-3-2-----7-6-----6-7-4-|
D|-5-4-0-0-0-0-1-0-1-0-0-0-5-4-0-0-5-4-0-0-0-0-1-0-1-0-0-0-5-4-0-0-6-7-4-|
       * * * *         * *     * *     * * * *         * *     * *

1:03
d|---------------------------------------------------------------------------------------------------------|
A|---------------------------------------------------------------------------------------------------------|
F|-----------------5-5-4-4-------------------------8-8-9-9-------------------------------12-12-13-13-10-10-|
C|-----6-6-7-7-6-6---------7-7-6-6-----5-5-7-7-6-6---------6-6-5-5-----8-8-9-9-11-11-9-9-------------------|
G|-4-4-----------------------------4-4-----------------------------7-7-------------------------------------|
D|---------------------------------------------------------------------------------------------------------|

d|-----------------------------------------------------------------------------|
A|-----------------------------------------------------------------------------|
F|-----------------------------------------------------------------------------|
C|-9-9-8-8-8-8-8-8-8-8-11-11-11-11-9-9-9-9-8-8-7-7-7-7-7-7-7-7-----------------|
G|-------------------------------------------------------------8-8-8-8-8-8-8-8-|
D|-----------------------------------------------------------------------------|

1:13
d|---------------------------------------------------------------------------------------------|
A|---------------------------------------------------------------------------------------------|
F|---------------------------------------------------------------------------------------------|
C|-8-9-8-------8-9-8-------8-9-8-------8-9-8-------9-11-9-----9-11-9-----9-11-9-----9-11-9-----|
G|-------11-11-------11-11-------11-11-------11-11--------9-9--------9-9--------9-9--------9-9-|
D|---------------------------------------------------------------------------------------------|
         *  *        *  *        *  *        *  *         * *        * *        * *        * *

d|-------------------------------------------------------------|
A|-------------------------------------------------------------|
F|-------------------------------------------------------------|
C|-11-13-11-------11-13-11-------11-13-11-------11-13-11-------|
G|-------------------------------------------------------------|
D|----------12-12----------12-12----------12-12----------12-12-|
            *  *           *  *           *  *           *  *

d|-------------------------------------------------|
A|-------------------------------------------------|
F|-------------------------------------------------|
C|-14-13-11----13-11-------11----------------------|
G|----------14-------14-13----14-13-11-14-13-11----|
D|----------------------------------------------14-|

1:29
d|-------------------------------------------------------------------------|
A|-------------------------------------------------------------------------|
F|-------------------------------------------------------------------------|
C|-------------------------------------------------------------------------|
G|---6-4-6---6-4-6-7-6-4-6---6-4-6---6-4-6-7-6-4-6---6-4-6---6-4-6-7-6-4-6-|
D|-4-------4---------------2-------2---------------0-------0---------------|

d|-----------------------------------------------------------------|
A|-----------------------------------------------------------------|
F|-----------------------------------------------------------------|
C|-----------------------------------------------------------------|
G|-----------------9-9-9-9-7-7-7-7---------------------------------|
D|-7-7-7-7-7-7-7-7-----------------6-6-6-6-6-6-6-6-7-7-7-7-9-9-9-9-|

2:01
d|-----------------------------------------------------------------------|
A|-----------------------------------------------------------------------|
F|-----------------------------------------------------------------------|
C|-----------------------------------------------------------------8-9-6-|
G|-7-6---------3-2-3-2-----7-6-----7-6---------3-2-3-2-----7-6-----6-7-4-|
D|-5-4-0-0-0-0-1-0-1-0-0-0-5-4-0-0-5-4-0-0-0-0-1-0-1-0-0-0-5-4-0-0-6-7-4-|
       * * * *         * *     * *     * * * *         * *     * *

2:25
d|---------------------------------------------------------------------------------------------------------|
A|---------------------------------------------------------------------------------------------------------|
F|-----------------5-5-4-4-------------------------8-8-9-9-------------------------------12-12-13-13-10-10-|
C|-----6-6-7-7-6-6---------7-7-6-6-----5-5-7-7-6-6---------6-6-5-5-----8-8-9-9-11-11-9-9-------------------|
G|-4-4-----------------------------4-4-----------------------------7-7-------------------------------------|
D|---------------------------------------------------------------------------------------------------------|

d|-----------------------------------------------------------------------------|
A|-----------------------------------------------------------------------------|
F|-----------------------------------------------------------------------------|
C|-9-9-8-8-8-8-8-8-8-8-11-11-11-11-9-9-9-9-8-8-7-7-7-7-7-7-7-7-----------------|
G|-------------------------------------------------------------8-8-8-8-8-8-8-8-|
D|-----------------------------------------------------------------------------|

2:35
d|---------------------------------------------------------------------------------------------|
A|---------------------------------------------------------------------------------------------|
F|---------------------------------------------------------------------------------------------|
C|-8-9-8-------8-9-8-------8-9-8-------8-9-8-------9-11-9-----9-11-9-----9-11-9-----9-11-9-----|
G|-------11-11-------11-11-------11-11-------11-11--------9-9--------9-9--------9-9--------9-9-|
D|---------------------------------------------------------------------------------------------|
         *  *        *  *        *  *        *  *         * *        * *        * *        * *

d|-------------------------------------------------------------|
A|-------------------------------------------------------------|
F|-------------------------------------------------------------|
C|-11-13-11-------11-13-11-------11-13-11-------11-13-11-------|
G|-------------------------------------------------------------|
D|----------12-12----------12-12----------12-12----------12-12-|
            *  *           *  *           *  *           *  *

d|-------------------------------------------------|
A|-------------------------------------------------|
F|-------------------------------------------------|
C|-14-13-11----13-11-------11----------------------|
G|----------14-------14-13----14-13-11-14-13-11----|
D|----------------------------------------------14-|

2:51
d|-------------------------------------------------------------------------|
A|-------------------------------------------------------------------------|
F|-------------------------------------------------------------------------|
C|-------------------------------------------------------------------------|
G|---6-4-6---6-4-6-7-6-4-6---6-4-6---6-4-6-7-6-4-6---6-4-6---6-4-6-7-6-4-6-|
D|-4-------4---------------2-------2---------------0-------0---------------|

d|-----------------------------------------------------------------|
A|-----------------------------------------------------------------|
F|-----------------------------------------------------------------|
C|-----------------------------------------------------------------|
G|-----------------9-9-9-9-7-7-7-7---------------------------------|
D|-7-7-7-7-7-7-7-7-----------------6-6-6-6-6-6-6-6-7-7-7-7-9-9-9-9-|

3:23                    |Solo Rhythm
d|----------------------|------------------------------------------------------------------------------|
A|----------------------|------------------------------------------------------------------------------|
F|----------------------|------------------------------------------------------------------------------|
C|----------------------|--------------------------------------9-8-9---------12-11-12---------15-14-15-|
G|--------2-2----2-2----|-6---5---4---3---2---1---0------------7-6-7---------10-9--10---------13-12-13-|
D|--------0-0----0-0----|---7---6---5---4---3---2---1~-0-0-0-0-------0-0-0-0----------0-0-0-0----------|
          * *    * *      * * * * * * * * * * * * *    * * * *       * * * *          * * * *

                                         |Ashok's Solo 3:45
d|---------------------------------------|------------------------------------------------------------------|
A|---------------------------------------|------------------------------------------------------------------|
F|---------------------------------------|------------------------------------------------------------------|
C|---------------------------------------|------------------------------------------------------------------|
G|7-10-7-10-7-10-7-10-7-6-9-6-9-6-9-6-9-6|1/1.25/1.5/1.75/2/2.25/2.5/2.75/3/3.25/3.5/3.75/4/4.25/4.5/4.75/5/|
D|---------------------------------------|------------------------------------------------------------------|
                                          +  +    +   +   +  +    +   +   +  +    +   +   +  +    +   +   +


3:47
d|-------------------------------16wf(16)wf--------------------------------------------------------------|
A|-------------------------------------------------------------------------------------------------------|
F|-----------------------------------------------------------------------12-10-9-12-10-9-----------------|
C|-/16wf(16)wf(16)wf(16)wf(16)wf------------15wf(15)wf(15)wf(15)wf-12wf\-----------------9-10-12-9-10-12-|
G|-------------------------------------------------------------------------------------------------------|
D|-------------------------------------------------------------------------------------------------------|

d|-------------------------------------------------------------------------------------------------|
A|----------------------------------------------19-------------------------------------------------|
F|-13-11-10-13-11-10-------------------------19----13-14-13----13----------------------------------|
C|-------------------10-11-13-11-12-14----19----------------16----16-14-13-12-13-12----12----------|
G|-------------------------------------19-------------------------------------------15----15-13-12-|
D|-------------------------------------------------------------------------------------------------|
                                       +  +  +  +

d|--------------------------------------------------------------------------------------------|
A|-----------------------------15-12----------------------12-17-14----------------------14-18~|
F|-------------------12-13-15~-------13----------------13----------15----------------15-------|
C|----------11-12-14--------------------12----------12----------------14----------14----------|
G|-11-12-14--------------------------------14----14----------------------16----16-------------|
D|--------------------------------------------15----------------------------17----------------|

                               |Rhythm 4:03           |Lead
d|-------------------------19~-|----------------------|-----------4-7-4--------------------7-12-7----------|
A|-15-12-------17-14-18-14-----|---4----8----4----6---|---------4-------4----------------8--------8--------|
F|-------13--------------------|---4----9----4----7---|-------4-----------4------------9------------9------|
C|----------12-----------------|---6----9----6----8---|-----6---------------6--------9----------------9----|
G|-----------------------------|---6----7----6----8---|---6-------------------6-7-10--------------------10-|
D|-----------------------------|---4---------4----6---|-4--------------------------------------------------|

                                                    |4:15
d|-----------4-7-4-------------------6-10-6---------|-------------9-12-9--------------------------12-17-12-|
A|---------4-------4---------------6--------6-------|-----------9--------9---------------------13----------|
F|-------4-----------4-----------7------------7-----|---------9------------9----------------14-------------|
C|-----6---------------6-------8----------------8---|------11----------------11----------14----------------|
G|---6-------------------6---8--------------------8-|---11----------------------11-12-15-------------------|
D|-4-----------------------6------------------------|-9----------------------------------------------------|

d|-------------------------9-12-9--------------------------11-15-11-------------|
A|-13--------------------9--------9---------------------11----------11----------|
F|----14---------------9------------9----------------12----------------12-------|
C|-------14---------11----------------11----------13----------------------13----|
G|----------15---11----------------------11----13----------------------------13-|
D|-------------9----------------------------11----------------------------------|
                                            
4:27                           |4:39                      |4:50
d|-----------------------------|--------------------------|-----------------------------------------|
A|-----------------------------|--------------------------|-----------------------------------------|
F|-----------------------------|-----6----7----6----8-----|-----8----8------------------------------|
C|-----6-----2-----6-----8-----|-----6----7----6----8-----|-----8----8----6----6--------------------|
G|-----6-----2-----6-----8-----|-----6----5----6----8-----|-----8----8----6----6----2-2-2-2-2-2-2-2-|
D|-----4-----0-----4-----6-----|-----4----0----4----6-----|-----6----6----4----4----0-0-0-0-0-0-0-0-|
                                                                                    * * * * * * * *

d|---------------------------------------------------------------------------------------------------------|
A|---------------------------------------------------------------------------------------------------------|
F|-----------------5-5-4-4-------------------------8-8-9-9-------------------------------12-12-13-13-10-10-|
C|-----6-6-7-7-6-6---------7-7-6-6-----5-5-7-7-6-6---------6-6-5-5-----8-8-9-9-11-11-9-9-------------------|
G|-4-4-----------------------------4-4-----------------------------7-7-------------------------------------|
D|---------------------------------------------------------------------------------------------------------|

d|-----------------------------------------------------------------------------|
A|-----------------------------------------------------------------------------|
F|-----------------------------------------------------------------------------|
C|-9-9-8-8-8-8-8-8-8-8-11-11-11-11-9-9-9-9-8-8-7-7-7-7-7-7-7-7-----------------|
G|-------------------------------------------------------------8-8-8-8-8-8-8-8-|
D|-----------------------------------------------------------------------------|

5:15
d|---------------------------------------------------------------------------------------------|
A|---------------------------------------------------------------------------------------------|
F|---------------------------------------------------------------------------------------------|
C|-8-9-8-------8-9-8-------8-9-8-------8-9-8-------9-11-9-----9-11-9-----9-11-9-----9-11-9-----|
G|-------11-11-------11-11-------11-11-------11-11--------9-9--------9-9--------9-9--------9-9-|
D|---------------------------------------------------------------------------------------------|
         *  *        *  *        *  *        *  *         * *        * *        * *        * *

d|-------------------------------------------------------------|
A|-------------------------------------------------------------|
F|-------------------------------------------------------------|
C|-11-13-11-------11-13-11-------11-13-11-------11-13-11-------|
G|-------------------------------------------------------------|
D|----------12-12----------12-12----------12-12----------12-12-|
            *  *           *  *           *  *           *  *

d|-------------------------------------------------|
A|-------------------------------------------------|
F|-------------------------------------------------|
C|-14-13-11----13-11-------11----------------------|
G|----------14-------14-13----14-13-11-14-13-11----|
D|----------------------------------------------14-|

5:30 Solo Rhythm
d|-------------------------------------------------------------------------|
A|-------------------------------------------------------------------------|
F|-------------------------------------------------------------------------|
C|-------------------------------------------------------------------------|
G|---6-4-6---6-4-6-7-6-4-6---6-4-6---6-4-6-7-6-4-6---6-4-6---6-4-6-7-6-4-6-|
D|-4-------4---------------2-------2---------------0-------0---------------|

d|-----------------------------------------------------------------|
A|-----------------------------------------------------------------|
F|-----------------------------------------------------------------|
C|-----------------------------------------------------------------|
G|-----------------9-9-9-9-7-7-7-7---------------------------------|
D|-7-7-7-7-7-7-7-7-----------------6-6-6-6-6-6-6-6-7-7-7-7-9-9-9-9-|

6:02 Richard's Solo
d|-------------------------------------------------------------------16/18\16-12---------------------------|
A|-------------------------------------16-14-16-----16-14-16br-14-16-------------16-12---------------------|
F|-------------------------------------------------------------------------------------13-9----------------|
C|----13-11-13----13-11-13br-11-13~-16----------16~-----------------------------------------13-9-----------|
G|-11----------11--------------------------------------------------------------------------------11-7------|
D|----------------------------------------------------------------------------------------------------11-7-|

d|------------------------------------------------------------------------------------|
A|-------------------------------------------------------------/12~-17br--------------|
F|----------------------------------------8-9-11--------8-9-11-----------15-16-16/18~-|
C|-------------------8-9-11--------8-9-11--------8-9-11-------------------------------|
G|------------7-9-11--------7-9-11----------------------------------------------------|
D|-6-0-7-9-11-------------------------------------------------------------------------|

6:18
d|-------------------------------------------------------------------14-16-18-19~-|
A|----16-14-16----16-14-16br-14-16----16-14-16-----16-14-16-14-16-17--------------|
F|-13----------13-----------------------------------------------------------------|
C|---------------------------------16----------16~--------------------------------|
G|--------------------------------------------------------------------------------|
D|--------------------------------------------------------------------------------|
                                   
d|-18-16-18~-19-18-19~-18-16-18~-19-16----------16-18-16----------16-21-16----------16-19-16-------------|
A|-------------------------------------17----17----------17----17----------17----17----------17----------|
F|----------------------------------------16----------------16----------------16----------------16-------|
C|-------------------------------------------------------------------------------------------------18----|
G|----------------------------------------------------------------------------------------------------19-|
D|-------------------------------------------------------------------------------------------------------|

d|-14-12-11-------------------------------------------------------------------------------------------------|
A|----------14-12-11----11-12-14-12-11----------------------------------------------------------------------|
F|-------------------13----------------13-11-10----10-11-13-11-10-------------------------------------------|
C|----------------------------------------------13----------------13-11-10----10-11-13-11-10---------------2|
G|-------------------------------------------------------------------------13----------------13-11-10-/11~-2|
D|---------------------------------------------------------------------------------------------------------0|            
Submit corrections

↑ Back to top | Tablatures and chords for acoustic guitar and electric guitar, ukulele, drums are parodies/interpretations of the original songs. You may use it for private study, scholarship, research or language learning purposes only