» » »

Cradle Of Filth - Hallowed Be Thy Name Tabs

Artists:  A B C D E F G H I J K L M N O P Q R S T U V W X Y Z # 

Hallowed Be Thy Name Tabs

(ver. 1) Click to play this song!
Cradle Of Filth
 Rating:
4/5 (4 votes)
    Hallowed Be Thy Name lessons Tabs too difficult? Try these video lessons and learn fast
                This is not completely right, but its sounds good, play it with the song
because the song has 2 guitars, and we tabbed it for one guitar. I will
try to tab it for 2 guitars soon!

Riff 1
-14-12-10-9h10p9-7-9---14-12-10-9h10p9-7-6---14-12-10-9h10p9-7-9--10h12p10h12p10h12p10-

-14-12-10-9h10p9-7-9---14-12-10-9h10p9-7-6---14-12-10-9h10p9-7-9----------------------


Riff 2
------------------------------------
------------------------------------
--------------2---------------------
-2h3p2h3p2h3-----3p2h3p2-0----------  x8
------------------------------------
------------------------------------


Riff 3.1
-7------------------------------5------------7------------------------
-7---------------7-8----------5-5----------7-7-7-8--------------------  x2
-5---------------7-8----------5-3----------7-5-7-8--------------------
-----------------5-6----------3------------5---5-6--------------------



Riff 3.2
-7-777-777-777-77-------------------------------------------------7-----------------------
-7-777-777-777-77-8-888-888-888-88-10-101010-101010-101010-1010---7-7-8-------------------  x2
-5-555-555-555-55-8-888-888-888-88-10-101010-101010-101010-1010---5-7-8-------------------
------------------8-666-666-666-66-8--8-8-8--8-8-8--8-8-8--8-8------5-6-------------------


Riff 2  x8


Riff 4.1

------------------------------------------------
------------------------------------------------
------------------------------------------------
-------7-----------7-----------7----------------
-5-7h8---8p7-5-7h8---8p7-5-7h8---8p7------------ x4
------------------------------------------------


Riff 4.2

-------5-----------5-----------5-------------7-----------5-----------5-----------
---5h7---7p5---5h7---7p5---5h7---7-5-----5h7---7-5---5h7---7-5---5h7---7-5-------  x2
-8-----------8-----------8-------------8-----------8-----------8-----------8-----


Riff 3.3

-7-777-777-777-77-------------------------------------------------7-777-7------------------
-7-777-777-777-77-8-888-888-888-88-10-101010-101010-101010-1010---7-777-7---3-2-0---3-2-0--  x4
-5-555-555-555-55-8-888-888-888-88-10-101010-101010-101010-1010---5-555-5------------------
------------------8-666-666-666-66-8--8-8-8--8-8-8--8-8-8--8-8-----------------------------


Riff 4.1  x4


Riff 5

---5-----
-----5-6-
-7-------   x16
---------
---------
---------


-Keyboard Part-

--(These Chords Are Played 20 Times If You Dont Wanna Count)-------------
-77777777777777777777----------------55555555555555555555----------------
-77777777777777777777-3-2-0---3-2-0--55555555555555555555-3-2-0---3-2-0-- x2
-55555555555555555555----------------33333333333333333333----------------


-Solos- (Not Tabbed, If You Have Them, Plz Send Me Them Or Post 'Em, Need BADLY)


------------------------------------------
------------------------------------------
---777-777-5-777-777--1010----1010--------
---777-777-5-777-777--101010101010101010--   x2
---555-555-3-555-555--8-8-10108-8-101010--
--------------------------8-8-----8-8-8---

--------------------------
--------------------------
---777-777-5-777-7777777--
---777-777-5-777-7777777--
---555-555-3-555-5555555--
--------------------------


Riff 2 x11

---------------------------
---------------------------
-7-------------------------
-7-7-8---------------------
-5-7-8----5h7/8-10p8-7/5---
---5-6---------------------

Riff 2 x3

---------------------------
---------------------------
-7-------------------------
-7-7-8---------------------
-5-7-8----5h7/8-10p8-7/5---
---5-6---------------------

-7777777777777777---------------------------------------------------7777777777777777------
-7777777777777777-8888888888888888-10101010101010101010101010101010-7777777777777777------
-5555555555555555-8888888888888888-10101010101010101010101010101010-5555555555555555------
------------------6666666666666666-8-8-8-8-8-8-8-8-8-8-8-8-8-8-8-8------------------------

-7777777777777777---------------------------------------------------
-7777777777777777-8888888888888888-10101010101010101010101010101010-
-5555555555555555-8888888888888888-10101010101010101010101010101010-
------------------6666666666666666-8-8-8-8-8-8-8-8-8-8-8-8-8-8-8-8--


Riff 5 x16

Riff 5 speeding up and slowing down (listening for timing)

----------------
----------------
--7777---7777\--
--7777---7777\--
--5555---5555\--
----------------
            
Submit corrections

↑ Back to top | Tablatures and chords for acoustic guitar and electric guitar, ukulele, drums are parodies/interpretations of the original songs. You may use it for private study, scholarship, research or language learning purposes only