» » »

Cradle Of Filth - Shat Out Of Hell Tabs

Artists:  A B C D E F G H I J K L M N O P Q R S T U V W X Y Z # 

Shat Out Of Hell Tabs

(ver. 1) Click to play this song!
Cradle Of Filth
 Rating:
4/5 (4 votes)

 Shat Out Of Hell lessons Tabs too difficult? Try these video lessons and learn fast
 
                #------------------------------------------------------------------------------##

                                 CRADLE OF FILTH
                         As recorded by Cradle Of Filth
              (From the 2008 Album GODSPEED ON THE DEVIL'S THUNDER)

Words and Music by Cradle of Filth

Gtr I (D G C F A D) - 'Guitar I'
Gtr II (D G C F A D) - 'Guitar II' <- I don't see the poin in this bit 'coz both 
guitars do the same thing all the way through

   Intro
    Q=225
   4/4
    Gtrs I, II
    TP   TP TP    TP  TP TP TP   TP   TPTP  TP     TP  TP  TP TP
    H    Q  Q    +Q   Q  Q  Q    Q.   E Q   Q     +Q   Q   Q  Q
||-------------|---------------|---------------|-----------------|
||o------------|---------------|---------------|-----------------|
||-------------|---------------|---------------|-----------------|
||-------------|---------------|---------------|-----------------|
||o------7--6--|-(6)-----6--7--|-9----7-9--10--|-(10)--9---------|
||--0----------|------7--------|---------------|----------10--7--|


  TP   TP TP    TP  TP TP TP   TP   TPTP  TP     TP  TP  TP  TP
  H    Q  Q    +Q   Q  Q  Q    Q.   E Q   Q     +Q   Q   Q   Q
|------------|---------------|---------------|-------------------||
|------------|---------------|---------------|------------------o||
|------------|---------------|---------------|-------------------||
|------------|---------------|---------------|-------------------||
|------7--6--|-(6)-----6--7--|-9----7-9--10--|-(10)--9--10--12--o||
|-0----------|------7--------|---------------|-------------------||


   Verse
     H.       E  E    Q  Q   Q  Q    H.      E E   Q  Q  Q  Q
||-----------------|---------------|-------------|------------|
||o----------------|---------------|-------------|------------|
||-----------------|---------------|-------------|------------|
||--11-------10-11-|-10--7--10--7--|-6-------7-6-|-7--6-------|
||o--9--------8--9-|--8--5---8--5--|-4-------5-4-|-5--4--6--5-|
||-----------------|---------------|-------------|-------4--3-|


   H.       E  E    Q  Q   Q  Q    H.      E E   Q   Q  Q   Q
|----------------|---------------|-------------|----------------||
|----------------|---------------|-------------|---------------o||
|----------------|---------------|-------------|----------------||
|-11-------10-11-|-10--7--10--7--|-6-------7-6-|-7--10--7--10---||
|--9--------8--9-|--8--5---8--5--|-4-------5-4-|-5---8--5---8--o||
|----------------|---------------|-------------|----------------||


   Pre-Chorus
    H.      E E   Q  Q  Q  Q    H.      E E   Q  Q  Q  Q  4x
||--------------|-------------|-------------|-------------||
||o-------------|-------------|-------------|------------o||
||--------------|-------------|-------------|-------------||
||--------------|-------------|-7-------6-7-|-6-----------||
||o-4-------3-4-|-3--4--6--4--|-5-------4-5-|-4--7--4--6-o||
||--2-------1-2-|-1--2--4--2--|-------------|----5--2--4--||


 Chorus
   TP       TP TP   TP       TP TP  TP         TP    TP TP
   H.       E  E    H.       E  E   W          H     Q  Q
|----------------|----------------|----------|-------------|
|----------------|----------------|----------|-------------|
|----------------|----------------|----------|-------------|
|----------------|----------------|----------|-------------|
|-14-------15-14-|-12-------14-12-|-8--------|-8----10--8--|
|----------------|----------------|----------|-------------|


   TP       TP TP   TP       TP TP   TP       TP TP   TP  TP  TP  TP
   H.       E  E    H.       E  E    H.       E  E    Q   Q   Q   Q
|----------------|----------------|----------------|-----------------|
|----------------|----------------|----------------|-----------------|
|----------------|----------------|----------------|-----------------|
|----------------|----------------|----------------|-----------------|
|-14-------15-14-|-12-------14-12-|-15-------14-15-|-14--17--15--14--|
|----------------|----------------|----------------|-----------------|


   TP       TP TP   TP       TP TP  TP         TP    TP TP
   H.       E  E    H.       E  E   W          H     Q  Q
|----------------|----------------|----------|-------------|
|----------------|----------------|----------|-------------|
|----------------|----------------|----------|-------------|
|----------------|----------------|----------|-------------|
|-14-------15-14-|-12-------14-12-|-8--------|-8----10--8--|
|----------------|----------------|----------|-------------|


   TP       TP TP   TP       TP TP   TP  TP  TP  TP    TP  TP  TP  TP
   H.       E  E    H.       E  E    Q   Q   Q   Q     Q   Q   Q   Q
|----------------|----------------|-----------------|-----------------|
|----------------|----------------|-----------------|-----------------|
|----------------|----------------|-----------------|-----------------|
|----------------|----------------|-----12--14------|-12--15--14------|
|-14-------15-14-|-12-------14-12-|-14----------15--|-------------15--|
|----------------|----------------|-----------------|-----------------|


   Breakdown
    PM------|                        PM----|            PM----|
    S S S S E E +H        W          S S S S Q  Q  Q    S S S S Q  Q  Q  4x
||----------------------|----------|------------------|------------------||
||o---------------------|----------|------------------|-----------------o||
||----------------------|----------|------------------|------------------||
||----------------------|----------|------------------|------------------||
||o-----------8-(8)\----|----------|---------8--6--8--|---------4--8--6-o||
||--7-7-7-7-7-6-(6)\----|----------|-7-7-7-7-6--4--6--|-3-3-3-3-2--6--4--||


                      PM------------|                     PM------------|
    W          +H     S S S S S S S S   W          +H     S S S S S S S S
||-----------|------------------------|----------|---------------------------||
||o----------|------------------------|----------|--------------------------o||
||-----------|------------------------|----------|---------------------------||
||-----------|------------------------|----------|---------------------------||
||o-4--------|-(4)--------------------|-4--------|-(4)----------------------o||
||--2--------|-(2)----3-3-3-3-3-3-3-3-|-2--------|-(2)----3-3-3-3-3-3-3-3----||


  E E E E E E E E   E E E E E E E E   E E E E E E E E   E E E E E E E E
|-----------------|-----------------|-----------------|-----------------|
|-----------------|-----------------|-----------------|-----------------|
|-----------------|-----------------|-----------------|-----------------|
|-6-6-6-6-6-6-6-6-|-6-6-6-6-6-6-6-6-|-5-5-5-5-5-5-5-5-|-5-5-5-5-5-5-5-5-|
|-4-4-4-4-4-4-4-4-|-4-4-4-4-4-4-4-4-|-3-3-3-3-3-3-3-3-|-3-3-3-3-3-3-3-3-|
|-----------------|-----------------|-----------------|-----------------|


  E E E E E E E E   E E E E E E E E   E E E E E E E E   Q  Q  Q  Q
|-----------------|-----------------|-----------------|-------------|
|-----------------|-----------------|-----------------|-------------|
|-----------------|-----------------|-----------------|-------------|
|-4-4-4-4-4-4-4-4-|-4-4-4-4-4-4-4-4-|-5-5-5-5-4-4-4-4-|-6--5--4--5--|
|-2-2-2-2-2-2-2-2-|-2-2-2-2-2-2-2-2-|-3-3-3-3-2-2-2-4-|-4--3--2--3--|
|-----------------|-----------------|-----------------|-------------|


                      PM------------|                     PM------------|
    W          +H     S S S S S S S S   W          +H     S S S S S S S S
||-----------|------------------------|----------|---------------------------||
||o----------|------------------------|----------|--------------------------o||
||-----------|------------------------|----------|---------------------------||
||-----------|------------------------|----------|---------------------------||
||o-4--------|-(4)--------------------|-4--------|-(4)----------------------o||
||--2--------|-(2)----3-3-3-3-3-3-3-3-|-2--------|-(2)----3-3-3-3-3-3-3-3----||


   Outro
    TP   TP TP    TP  TP TP TP   TP   TPTP  TP     TP  TP  TP TP
    H    Q  Q    +Q   Q  Q  Q    Q.   E Q   Q     +Q   Q   Q  Q
||-------------|---------------|---------------|----------------|
||o------------|---------------|---------------|----------------|
||-------------|---------------|---------------|----------------|
||-------------|---------------|---------------|----------------|
||o------7--6--|-(6)-----6--7--|-9----7-9--10--|-(10)--9--------|
||--0----------|------7--------|---------------|----------10--7-|


  TP   TP TP    TP  TP TP TP   TP   TPTP  TP     TP  TP  TP  TP
  H    Q  Q    +Q   Q  Q  Q    Q.   E Q   Q     +Q   Q   Q   Q
|------------|---------------|---------------|-------------------||
|------------|---------------|---------------|------------------o||
|------------|---------------|---------------|-------------------||
|------------|---------------|---------------|-------------------||
|------7--6--|-(6)-----6--7--|-9----7-9--10--|-(10)--9--10--12--o||
|-0----------|------7--------|---------------|-------------------||


    TP   TP TP    TP  TP TP TP   TP   TPTP  TP     TP  TP  TP TP
    H    Q  Q    +Q   Q  Q  Q    Q.   E Q   Q     +Q   Q   Q  Q
||-------------|---------------|---------------|----------------|
||o------------|---------------|---------------|----------------|
||-------------|---------------|---------------|----------------|
||-------7--6--|-(6)-----6--7--|-9----7-9--10--|-(10)--9--------|
||o-0----------|------7--------|---------------|----------10--7-|
||-------------|---------------|---------------|----------------|


  TP   TP TP    TP  TP TP TP   TP   TP    TP     TP  TP  TP  TP
  H    Q  Q    +Q   Q  Q  Q    Q.   E Q   Q     +Q   Q   Q   Q
|------------|---------------|---------------|-------------------||
|------------|---------------|---------------|------------------o||
|------------|---------------|---------------|-------------------||
|------7--6--|-(6)-----6--7--|-9----7-9--10--|-(10)--9--10--12---||
|-0----------|------7--------|---------------|------------------o||
|------------|---------------|---------------|-------------------||


  W
|-----------*|
|-----------*|
|-----------*|
|-----------*|
|-7\--------*|
|-5\--------*|


Duration Legend
---------------
W - whole; H - half; Q - quarter; E - 8th; S - 16th; T - 32nd; X - 64th; a - acciaccatura
+ - note tied to previous; . - note dotted; .. - note double dotted
Uncapitalized letters represent notes that are staccato (1/2 duration)
Irregular groupings are notated above the duration line
Duration letters will always appear directly above the note/fret number it represents the
duration for.  Duration letters with no fret number below them represent rests.  Multi-
bar rests are notated in the form Wxn, where n is the number of bars to rest for.  Low
melody durations appear below the staff

Tablature Legend
----------------
 h   - hammer-on
 p   - pull-off
 b   - bend
 pb  - pre-bend
 r   - bend release (if no number after the r, then release immediately)
 /\  - slide into or out of (from/to "nowhere")
 s   - legato slide
 S   - shift slide
  - natural harmonic
[n]  - artificial harmonic
n(n) - tapped harmonic
 ~   - vibrato
 tr  - trill
 T   - tap
 TP  - trem. picking
 PM  - palm muting
\n/  - tremolo bar dip; n = amount to dip
 \n  - tremolo bar down
 n/  - tremolo bar up
/n\  - tremolo bar inverted dip
 =   - hold bend; also acts as connecting device for hammers/pulls
 <>  - volume swell (louder/softer)
 x   - on rhythm slash represents muted slash
 o   - on rhythm slash represents single note slash

Misc Legend
-----------
 |  - bar
||  - double bar
||o - repeat start
o|| - repeat end
*|  - double bar (ending)
 :  - bar (freetime)
 $  - Segno
 &  - Coda
Tempo markers -  = BPM(8/16=s8/s16), where s8 = swing 8ths, s16 = swing 16ths


***************************************************************************************
***************************************************************************************
            
Submit corrections


        Shat Out Of Hell lessons Hard to play? Try these video lessons and learn fast Shat Out Of Hell lessons
        
↑ Back to top | Tablatures and chords for acoustic guitar and electric guitar, ukulele, drums are parodies/interpretations of the original songs. You may use it for private study, scholarship, research or language learning purposes only