Home » C » Cradle Of Filth »

Cradle Of Filth - Nymphetamine Bass

Artists:  A B C D E F G H I J K L M N O P Q R S T U V W X Y Z # 

Nymphetamine Bass

(ver. 1) Click to play this song!
Cradle Of Filth
Artist/Band: Cradle of Filth
Label: Roadrunner
Type of File: Bass Tab (four string version)
Tuning: Drop-D
Updated Date/Time 10 May 2005 1548 HRS
Hope you guys like it. So here goes!

Bass Fig. 1 

                                                    *Fill 1
||-------------------------|------------------------------||
||*------------------------|-----------------------------*||
||*-3------------------3---|--3-----------------3--------*||
||-------1-----6--3--------|-------1-----6--3--------5-3--||

*Fill 1 was played once before the verse.

Bass Fig. 2 

   Bared on your tomb..................
|-------------------------------------------------|
|-------------------------------------------------|
|-------------------------------------------------|
|-5-5-5-5-5-5-3-3-3-3-3-3-5-5-5-5-5-5-1-1-1-1-1-1-|

|-------------------------------------------------|
|-------------------------------------------------|
|-------------------------------------------------|
|-5-5-5-5-5-5-3-3-3-3-3-3-1-1-1-1-1-1-3-3-3-3-3-3-|

Bass Fig. 3 

|-------------------------|------------------------|
|-------------------------|------------------------|
|--3--3-3-3-3-3-3-3-3-3-3-|-1--1-1-1-1-1-1-1-1-1-1-|
|-------------------------|------------------------|

|-------------------------|------------------------|
|-------------------------|------------------------|
|-------------------------|------------------------|
|--5--5-5-5-5-5-5-5-5-5-5-|-3--3-3-3-3-3-1-3-1-3/5-|

Fill 2

|--------|
|--------|
|--------|
|--6--6--|

Bass Fig. 4
                     4x (whispering part) 
||--------------------||-------|
||*------------------*||-------|
||*--5---4---1---2---*||-3~----|
||--------------------||-------|

Structure:

Intro: Bass Fig. 1 (1x)
Verse 1: Bass Fig. 1 (4x)
Pre-Chorus: Bass Fig. 2 (2x)
Chorus: Bass Fig. 3 (2x) Fill 2
Post-Chorus: Bass Fig. 4 (1x)
Verse 2: Bass Fig. 1 (2x)
Pre-chorus: Bass Fig. 2 (2x)
Chorus: Bass Fig. 3 (4x) Fill 2
Post-chorus: Bass Fig. 4 (1x)

==========FIN==========
This song goes out to my friends and my special someone.
            
Submit corrections

↑ Back to top | Tablatures and chords for acoustic guitar and electric guitar, ukulele, drums are parodies/interpretations of the original songs. You may use it for private study, scholarship, research or language learning purposes only