» » »

Cradle Of Filth - Death Magick For Adepts Tabs

Artists:  A B C D E F G H I J K L M N O P Q R S T U V W X Y Z # 

Death Magick For Adepts Tabs

(ver. 2) Click to play this song!
Cradle Of Filth
 Rating:
4/5 (4 votes)


 Death Magick For Adepts lessons Tabs too difficult? Try these video lessons and learn fast
 
                tuning: Drop d( E,G,B,D,A,D)

* = play 16 times
^ = up stroke.everything else is a down stroke.or whatever is easiest 4 u to play.
~ = vibrato

note:MAKE SURE your tuned in drop d or else the whole song wont work

Riff 1 (intro): 4 times

e|------------------------------------------------------|
g|------------------------------------------------------|
b|------------------------------------------------------|
d|--2-----------5-----------6------3-4-3----------------|
a|--2-----------5-----------6---------------------------|
d|--2-----------5-----------6--------------5-6-5--------|


Riff 2  (fast): 4 times

e|-------------------------------------------------------------|
g|-------------------------------------------------------------|
b|-------------------------------------------------------------|
d|--9--9--8--9--10--9--8--9---5--5--7--7--4--4--6--6-----------|
a|--7--7--6--7--8---7--6--7---3--3--5--5--2--2--4--4-----------|
d|-------------------------------------------------------------|

twice.i think
e|----------------------------------------------------------------------------|
g|----------------------------------------------------------------------------|
b|--1-0-----------1-0-----1-0-----1-0--------------1-0-----1-0------1-0-3-----|
d|--1-0--3--------1-0--3--1-0--3--1-0--3-----------1-0--3--1-0--3---1-0-3-----|
a|--1-0--3--------1-0--3--1-0--3--1-0--3-----------1-0--3--1-0--3---1-0-3-----|
d|-------3-------------3-------3--------3---------------3-------3-------------|

Riff
e|--------------------------------------------------------------------------------
g|--------------------------------------------------------------------------------
b|------------9---------------------------------------10--------------------------
d|--7-9-10--------10-9-10----9h10p9--7--9-----7-9-10--------10-9-10----9h10p9--7--9
a|--------------------------------------------------------------------------------
d|-------------------------------------------------------------------------------

e|--------------------------------------------------|
g|--------------------------------------------------|
b|-------------11-----------------------------------|
d|--9-11-12------12-11-12----11h10p11--7--9---------|
a|--------------------------------------------------|
d|--------------------------------------------------|

reapeat  twice
e|--------------------------------------------------------------
g|--------------------------------------------------------------
b|--------------------------------------------------------------
d|--------------------------------------------------------------
a|-----8------------------------------8------8------------------
d|--8-----11--10--8--10--11--8------8-----11--10--8--10--11-----


e|--------------------------------------------------------|
g|--------------------------------------------------------|
b|--------------------------------------------------------|
d|--------------------------------------------------------|
a|----8--9--8--6--4--6--8--9--9--11--9--8--6--8--6--4-----|
d|--------------------------------------------------------|


twice
e|--------------------------------------------------|
g|--------------------------------------------------|
b|--------------------------------------------------|
d|--2-----------5-----------6------3-4-3------------|
a|--2-----------5-----------6-----------------------|
d|--2-----------5-----------6--------------5-6-5----|


4 times
e|---------------------------------------------------------------|
g|---------------------------------------------------------------|
b|---------------------------------------------------------------|
d|--9--9--8--9--10--9--8--9---5--5--7--7--4--4--6--6-------------|
a|--7--7--6--7--8---7--6--7---3--3--5--5--2--2--4--4-------------|
d|---------------------------------------------------------------|

I’m not sure about this.it just sounds like a organ mixed with some noise
ee|----------------------------------------------------------------------------|
g|----------------------------------------------------------------------------|
b|--1-0-----------1-0-----1-0-----1-0--------------1-0-----1-0------1-0-3-----|
d|--1-0--3--------1-0--3--1-0--3--1-0--3-----------1-0--3--1-0--3---1-0-3-----|
a|--1-0--3--------1-0--3--1-0--3--1-0--3-----------1-0--3--1-0--3---1-0-3-----|
d|-------3-------------3-------3--------3---------------3-------3-------------|

twice
e|--------------------------------------------------------------------------------
g|--------------------------------------------------------------------------------
b|------------9---------------------------------------10--------------------------
d|--7-9-10--------10-9-10----9h10p9--7--9-----7-9-10--------10-9-10----9h10p9--7--9
a|--------------------------------------------------------------------------------
d|-------------------------------------------------------------------------------


e|--------------------------------------------|
g|--------------------------------------------|
b|-------------11-----------------------------|
d|--9-11-12------12-11-12----11h10p11--7--9---|
a|--------------------------------------------|
d|--------------------------------------------|



reapeat twice
e|--------------------------------------------------------------
g|--------------------------------------------------------------
b|--------------------------------------------------------------
d|--------------------------------------------------------------
a|-----8------------------------------8-----8-------------------
d|--8-----11--10--8--10--11--8------8-----11--10--8--10--11-----


e|--------------------------------------------------------|
g|--------------------------------------------------------|
b|--------------------------------------------------------|
d|--------------------------------------------------------|
a|----8--9--8--6--4--6--8--9--9--11--9--8--6--8--6--4-----|
d|--------------------------------------------------------|


  4 times
e|---------------------------------------------------|
g|---------------------------------------------------|
b|---------------------------------------------------|
d|---------9-9-9-9-9-9---6-6-6-6---x^-x^-x^----------|
a|--65*----9-9-9-9-9-9--—6-6-6-6---x^-x^-x^----------|
d|--65-----9-9-9-9-9-9---6-6-6-6---x^-x^-x^----------|

some messed up amount of times
e|----------------------------------------------------|
g|----------------------------------------------------|
b|----------------------------------------------------|
d|--2-----------5-----------6------3-4-3--------------|
a|--2-----------5-----------6-------------------------|
d|--2-----------5-----------6--------------5-6-5------|

outro:after the ogre guy talks.
e|------------------------------------------------------------------
g|------------------------------------------------------------------
b|----------------------------9~~~~~~~9-7-9-10-9-7---------
d|------7----7---676767—9~10~---------------------10~~9~~~~~~~
a|--000----00-------------------------------------------------------
d|------------------------------------------------------------------

goth_child_666

THAT’S ALL!!listen to the song and play at it the same time and it will sound really good
            
Submit corrections



        Death Magick For Adepts lessons Hard to play? Try these video lessons and learn fast Death Magick For Adepts lessons
        
↑ Back to top | Tablatures and chords for acoustic guitar and electric guitar, ukulele, drums are parodies/interpretations of the original songs. You may use it for private study, scholarship, research or language learning purposes only