» » »

Cradle Of Filth - All Hope In Eclipse Tabs

Artists:  A B C D E F G H I J K L M N O P Q R S T U V W X Y Z # 

All Hope In Eclipse Tabs

(ver. 3) Click to play this song!
Cradle Of Filth
 Rating:
4.3/5 (6 votes)

 All Hope In Eclipse lessons Tabs too difficult? Try these video lessons and learn fast
 
                BAND:CRADLE OF FILTH
ALBUM:BITTER SUITES TO SUCCUBI
TUNING:DROP D (E,B,G,D,A,D,)

* = PALM MUTE
~ = RING OUT
" = TREM PICK
tr = TRILL NOTE (HAMMER ON & OFF REALLY FAST)
h = HAMMER ON
p = PULL OFF

IM PRETTY SURE THIS IS 100% IT SOUNDS RIGHT TO ME.PLZ RATE THIS TAB.

   INTRO
E---------------------------|
B---------------------------|
G---------------------------|
D---------------------------|
A--0~-----------0~----------|
D--0~-----------0~----------|


INTRO 2/VERSE

E----------------|
B----------------|
G----------------|
D----------------|
A----------------| X2
D--0"-1"-4"-3"---|


E---------------------------------------------------------------|
B---------------------------------------------------------------|
G---------------------------------------------------------------|
D---------------------------------------------------------------|
A--545----545----656----656----989----989----878----878---------| X2
D-----0000---0000---0000---0000---0000---0000---0000---0000-----|


E----------------------|
B----------------------|
G----------------------|
D--5~------------------|
A--3~--4~---6~---0~----|
D------4~---6~---0~----|

E--------------------------------------------|
B--------------------------------------------|
G--------------------------------------------|
D--55555555----------------------------------|
A--33333333--44444444--66666666--00000000----|
D------------44444444--66666666--00000000----|


E-----------------------|
B-----------------------|
G--5-565-565-8-6-5-6----|
D-----------------------|
A-----------------------| X3
D-----------------------|

   4TH TIME PLAY THIS
E-----------------|
B-----------------|
G--5-565-4-5-7-8--|
D-----------------|
A-----------------|
D-----------------|


   RIFF A

E-------------------------------------------|
B-------------------------------------------|
G--5-565-565-8-6-5-6----5-565-565-8-6-5-6---|
D-------------------------------------------|
A-------------------------------------------|
D-------------------------------------------|

E-----------------------------------------------------------|
B-----------------------------------------------------------|
G---565-5-6-8-6-5-6-----565-5-6-8-6-5-6-------565-4-5-7-8---|
D--6---6---------------5---5-----------------5---5----------|
A-----------------------------------------------------------|
D-----------------------------------------------------------|

   RIFF B
E------------------------------------------------------------------|
B------------------------------------------------------------------|
G------------------------------------------------------------------|
D------------------------------------------------------------------|
A--5-5------5-5------5-5------5-5------6-6------6-6-3-1-1-565-3----|
D--5-5-5555-5-5-5555-5-5-5555-5-5-5555-6-6-6666-6-6-3-1-1-565-3----|
       ****     ****     ****     ****     ****


THEN..
RIFF A X2


 RIFF C

E-----------------------------------------------|
B-----------------------------------------------|
G-----7"------6tr8------------------------------|
D-----------7"--------7"----3"------------------|
A--5"-----5"--------4"----2"----2h3p2-----------| x2
D--------------------------------------5h6p5----|


E-------------------------------------------|
B-------------------------------------------|
G-------------------------------------------|
D----7"----7"-6"---7"----6"----4"----3"-----|
A--5"----5"----------8"----7"----5"----4"---| x2
D-------------------------------------------|


  NEXT RIFF
E----------------|
B----------------|
G----------------|
D--7~-6~-3~-2~---|
A--5~-4~-1~-0~---|
D----------------|

E----------------|
B----------------|
G----------------|
D--7~-9~-10~-14~-|
A--5~-7~--8~-12~-|
D----------------|

E----------------|
B----------------|
G----------------|
D--7~-6~-3~-2~---|
A--5~-4~-1~-0~---|
D----------------|


E--------------------------------|
B--------------------------------|
G---------6~-5-6-7~-6-7-9~-------|
D--7~-5-7------------------------|
A---------------------------0~~~-|
D---------------------------0~~~-|


INTERLUDE...
PIANO,ETC.


THEN..
INTRO X2

   THEN THIS
E-----------------------------|
B-----------------------------|
G--------------------11"-10"--|
D----5---5-----5--5-----------|
A--7"--7"----7"--7"-----------| X8
D-----------------------------|


E--------------|
B--------------|
G--------------|
D--6---5---6---|
A--5---6---5---| X2
D---000-000----|


THEN...
RIFF A X2
RIFF B X4

  OUTRO
E--------------------------------------|
B--------------------------------------|
G--------------------------------------|
D--------------------------------------|
A--5-5-5-5-6------6-3-1-1-565-3-5------|
D--5-5-5-5-6-6666-6-3-1-1-565-3-5------|
             ****


   THATS IT ITS A PRETTY EASY SONG ONCE YOU GET THE HANG OF IT,ENJOY AND
   PLZ RATE IT.
            
Submit corrections


        All Hope In Eclipse lessons Hard to play? Try these video lessons and learn fast All Hope In Eclipse lessons
        
↑ Back to top | Tablatures and chords for acoustic guitar and electric guitar, ukulele, drums are parodies/interpretations of the original songs. You may use it for private study, scholarship, research or language learning purposes only